Lit - Four Chords & Tabs

 

Four Chords & Tabs

Lit Chords & Tabs

Version: 1 Type: Tab 0 ratings
1 star 2 stars 3 stars 4 stars 5 stars
comments

Four Tab

#----------------------------------PLEASE NOTE---------------------------------#
#This file is the author's own work and represents their interpretation of the #
#song. You may only use this file for private study, scholarship, or research. #
#------------------------------------------------------------------------------##

Lit "Four"

Intro & Verses
------------------
------------------
------------------
--3-3-3--7-7-8-8--
--1-1-1--5-5-6-6--
--1-1-1--5-5-6-6--
[ Tab from: http://www.guitartabs.cc/tabs/l/lit/four_tab.html ]
Verses & Pre Chorus
|-----------------------------------|-------------------------------------------------------------------
|-----------------------------------|-------------------------------------------------------------------
|-----------------------------------|-------------------------------------------------------------------
|--X-X-7/8-X-X-6/7-X-X-5/6-X-X-4/5--|--7-7-7-7-7-7-7-7-6-6-6-6-6-6-6-6-5-5-5-5-5-5-5-5-5-5-5-5-5-5-5-5--
|--X-X-7/8-X-X-6/7-X-X-5/6-X-X-4/5--|--7-7-7-7-7-7-7-7-6-6-6-6-6-6-6-6-5-5-5-5-5-5-5-5-5-5-5-5-5-5-5-5--
|--X-X-5/6-X-X-4/5-X-X-3/4-X-X-2/3--|--5-5-5-5-5-5-5-5-4-4-4-4-4-4-4-4-3-3-3-3-3-3-3-3-3-3-3-3-3-3-3-3--

Chorus
|-------------------------------------------------------------------|
|-------------------------------------------------------------------|
|-------------------------------------------------------------------|
|--7-7-7-7-7-7-7-7-6-6-6-6-6-6-6-6-5-5-5-5-5-5-5-5-5-5-5-5-5-5-5-5--|
|--7-7-7-7-7-7-7-7-6-6-6-6-6-6-6-6-5-5-5-5-5-5-5-5-5-5-5-5-5-5-5-5--|
|--5-5-5-5-5-5-5-5-4-4-4-4-4-4-4-4-3-3-3-3-3-3-3-3-3-3-3-3-3-3-3-3--|
Comments