Lit - Dozer Chords & Tabs

 

Dozer Chords & Tabs

Lit Chords & Tabs

Version: 1 Type: Chords 0 ratings
1 star 2 stars 3 stars 4 stars 5 stars
comments

Dozer Chords

   
Dozer
Lit(Before they’re music became sanitized and over polished)
From "Tripping the light fantastic"
This is not a literal transcription, it is to give the idea of how
to play the song. All in all it’s about 80% right.
Tell me I suck at ithinkibrokeit@hotmail.com 
Tune down ½ step
Intro Chords 
    C5       B5     E          
Eb--------|-------|----|
Bb--------|-------|----|
Gb--------|-------|----|
Db---10---|---9---|-2--|
Ab---10---|---9---|-2--|
Eb----8---|---7---|-0--|
For the intro play each chord 8 times, and then on 2nd time play C5 and then this octave
Eb------|                    
Ab-12--|
Gb--x--|          Bend it up ½ a step 4 times
Db--9--|
Ab------|
Eb------|

Verse                                                               E   Gb
Eb-----------------------------------------------------------|           
Bb---------------------------------------------------------- |
Gb------------9------------------------8----------------- |          repeat as necessary 
Db-------10-----10--------------9---------------2---4-|
Ab----10---10------10--------9----9-------------2---4-|
Eb---8-----------------8--7---------------------0---2-|
[ Tab from: http://www.guitartabs.cc/tabs/l/lit/dozer_crd.html ]
Chorus
E  Gb C5  play this as many times as needed then hit the B octave from the intro than an A octave then the B again. There’s a part after that I can’t figure out.

Verse

Chorus

Chorus 2
B Octave C5 B5 E Gb C5
Second time(before the solo)
Strum these octaves
Eb------|-----|-------
Bb-5---|-7---|-12-
Gb-x---|-x---|--x-     Hold the last one and give it a vibrato
Db-2---|-4---|--9-
Ab------|-----|----
Eb------|-----|------
 
Solo
                                                                                       | octave part          |
Eb------------------------------------------------------------------------------------
Bb-----------------------------------------------12/13\12/13\12/13    Do octave 
Gb------------------------------------------------x------------------part 4 times
Db---9h10p9h10/16-14-16b(17)-14-16b(17)-14vibrato-9/10\-9/10\-9/10
Ab----------------------------------------------------------------------------------
Eb-------------------------------------------------------------------------------------

Eb---------------------------------------------------------------
Bb---------------------------------------------------------------
Gb---------------------------------------16---------------------
Db---------9h10p9h10/16-14-16-14----------------------
Ab-------------------------------------------------------------
Eb------------------------------------------------------------

Do choruses and the part I don’t know

Comments