Lit - Down Chords & Tabs

 

Down Chords & Tabs

Lit Chords & Tabs

Version: 1 Type: Tab 0 ratings
1 star 2 stars 3 stars 4 stars 5 stars
comments

Down Tab

#----------------------------------PLEASE NOTE---------------------------------#
#This file is the author's own work and represents their interpretation of the #
#song. You may only use this file for private study, scholarship, or research. #
#------------------------------------------------------------------------------##

"Down"_______(har)stands for harmonics____________________________________________ ______________Intro+verses:_______________________

----------------------------------------------------------------------------------------------
----------------------------------------------------------------------------------------------
----------------------------------------------------------------------------------------------
--3-3-4------------3-3-4-----------3-3-5--3-3-4-----------3-3-4------------3-3-3--
--3-3-4------------3-3-4-----------3-3-5--3-3-4-----------3-3-4------------3-3-3--
--3-3-4-(har)4-4--3-3-4-(har)4-4--3-3-5--3-3-4-(har)4-4--3-3-4-(har)4-4--3-3-3--
__________________________________________________________________________________ ______________pre-chorus:_______________________________________________
[ Tab from: http://www.guitartabs.cc/tabs/l/lit/down_tab.html ]
-------------------------------------------------------------------------------------------
-------------------------------------------------------------------------------------------
-------------------------------------------------------------------------------------------
--6-6-6-6-6--8-8-8-8-8-8---3-3-4------------3-3-4-----------3-3-5----------------
--6-6-6-6-6--8-8-8-8-8-8---3-3-4------------3-3-4-----------3-3-5----------------
--4-4-4-4-4--6-6-6-6-6-6---3-3-4-(har)4-4--3-3-4-(har)4-4--3-3-5----------------
__________________________________________________________________________________ ______________chorus:______________________________

---------------------------------------------------------------------------------
---------------------------------------------------------------------------------
---------------------------------------------------------------------------------
--6-6-6-6-6--8-8-8-8-8-8-----------------------------------------------------
--6-6-6-6-6--8-8-8-8-8-8-----------------------------------------------------
--4-4-4-4-4--6-6-6-6-6-6-----------------------------------------------------
__________________________________________________________________________________ ________interlude at 2:00____________________________
---------------------------------------------------------------------------------
---------------------------------------------------------------------------------
--------5-------------7----------------------------------------------------------
------6---6---------8---8--------------------------------------------------------
----6-------6-----8-------8------------------------------------------------------
--4-------------6----------------------------------------------------------------
Comments