Lit - Addicted Chords & Tabs

 

Addicted Chords & Tabs

Lit Chords & Tabs

Version: 1 Type: Tab 0 ratings
1 star 2 stars 3 stars 4 stars 5 stars
comments

Addicted Tab

   
Chords used:
B5	G#5	C#5	F#5	E5	E5 (2)	Eb5
X	X	X	X	X	X	X
X	X	X	X	X	X	X
4	X	6	X	X	9	8
4	6	6	4	2	9	8
2	6	4	4	2	7	6
X	4	X	2	0	X	X
Mute the strings for the intro
E-X-X--X-X-X-X-X
B-X-X--X-X-X-X-X
G-X-X--X-X-X-X-X
D-X-X--X-X-X-X-X
A-X-X--X-X-X-X-X
E-X-X--X-X-X-X-X

Verse1:
B5	G#5
She calls me up 
C#5	F#5
Says she's comin' over
B5	G#5
So I run home (oooh-ooh)
C#5	F#5
Just to wait around
B5	G#5
She calls me names
C#5	F#5
Then we play some mind games
B5	G#5
And I don't know (oooh-ooh)
C#5	F#5
But I think I like it 

Bridge:
E5	F#5
Now she's the only one 
B5	F#5
Who blocks my number
E5	F#5
And she's the only one call 

E------------------------------------------------------------------------------------------------------------------------------------------
B------------------------------------------------------------------------------------------------------------------------------------------
G-9-9-9-8-6/8-9-------------------------------------------------------------------------------------------------------------------------
D-9-9-9-8-6/8-9-------------------------------------------------------------------------------------------------------------------------
A-7-7-7-6-4/6-7-------------------------------------------------------------------------------------------------------------------------
E------------------------------------------------------------------------------------------------------------------------------------------

Chorus:
B5	E5
(Yeah, oh yeah)
F#5	E5
What's wrong with me?
B5	E5 
(Yeah, oh yeah)
F#5	E5
Why can't I see?
B5	E5
(Yeah, oh yeah)
E5	F#5(palm mute then let it ring out)
I'm so addicted to you...and you're such a dick to me 
(slide your pick to pick scrape)

Verse2:
B5	G#5
She flies me out
C#5	F#5
Got a big surprise planned
B5	G#5
In Chicago(oooh-ooh)
C#5	F#5
That's my kinda town 

Bridge2:
E5	F#5
She says she's been a ho
B5	F#5
Had to let me know
E5	F#5
On the Jerry Springer Show 
[ Tab from: http://www.guitartabs.cc/tabs/l/lit/addicted_tab.html ]
E------------------------------------------------------------------------------------------------------------------------------------------
B------------------------------------------------------------------------------------------------------------------------------------------
G-9-9-9-8-6/8-9-------------------------------------------------------------------------------------------------------------------------
D-9-9-9-8-6/8-9-------------------------------------------------------------------------------------------------------------------------
A-7-7-7-6-4/6-7-------------------------------------------------------------------------------------------------------------------------
E------------------------------------------------------------------------------------------------------------------------------------------

Chorus:
B5	E5
(Yeah, oh yeah)
F#5	E5
What's wrong with me?
B5	E5 
(Yeah, oh yeah)
F#5	E5
Why can't I see?
B5	E5
(Yeah, oh yeah)
E5	F#5(palm mute then let it ring out)
I'm so addicted to you...and you're such a dick to me 
(slide your pick to pick scrape)

Solo: (use wah-wah as filter)  
E------------------------------------------------------------------------------------------------------------------------------------------
B------------------------------------------------------------------------------------------------------------------------------------------
G-6b-6b—6b-4h6p4-11b-9-8-9-8---------------------8--------8-11b-9-8-9-8-------
D---------------------------------------11b-9-11----9-11-------------------11b
A-----------------------------------------------------------------------------
E-----------------------------------------------------------------------------

Bridge3:
E5	F#5
I wrap myself
B5	F#5
Around her little finger
E5	F#5
And she gives me the middle one

E------------------------------------------------------------------------------------------------------------------------------------------
B------------------------------------------------------------------------------------------------------------------------------------------
G-9-9-9-8-6/8-9-------------------------------------------------------------------------------------------------------------------------
D-9-9-9-8-6/8-9-------------------------------------------------------------------------------------------------------------------------
A-7-7-7-6-4/6-7-------------------------------------------------------------------------------------------------------------------------
E------------------------------------------------------------------------------------------------------------------------------------------

Chorus:
B5	E5
(Yeah, oh yeah)
F#5	E5
What's wrong with me?
B5	E5 
(Yeah, oh yeah)
F#5	E5
Why can't I see?
B5	E5
(Yeah, oh yeah)
E5	F#5
I'm so addicted to you...and you're such a dick to me 
(slide your pick to pick scrape)
B5	E5
She calls and I come runnin' back
F#5	E5
I call, she never calls me back
B5	E5
What's wrong with me
E5	F#5
I'm so addicted to you...and you're such a dick to me
Comments