Lit - Addicted Chords & Tabs

 

Addicted Chords & Tabs

Lit Chords & Tabs

Version: 1 Type: Bass Tab 0 ratings
1 star 2 stars 3 stars 4 stars 5 stars
comments

Addicted Bass Tab

Band: Lit
Song: Addicted
Album: Atomic
Bassist: Kevin Baldes
Tabbed by Brett (QBKid956@yahoo.com)
If you figure out the ending email me i know what i have isn't right.  thanks.
Verse/Guitar Solo x4
G-------------------------------------
D-------------------------------------
A--2-2-x------4-4x-----------------
D---------6-6x------55-4-----------
[ Tab from: http://www.guitartabs.cc/tabs/l/lit/addicted_btab.html ]
Pre-chorus x1
G------------------------------------------------------
D------------------------------------------------------
A------------------------------------------------------
D--2-2-2-2-2-2-2-2-4-4-4-4-4-4-4-4-0---5\2--0

Chorus x3
G------------------------------------------
D------------------------------------------
A------------4---2-2----------------------
D--2-2-1-2-----1-----2-2-4-4-4-4-4-4--

End  Chorus x1
G----------------------------
D----------------------------
A----------------------------
D--2-2-2-2-2-2-2-2-4~---

Not Sure of Fast Ending? x1
G--------------------------------------------------
D--------------------------------------------------
A--------------------------------------------------
D--22222222222222224444444444444444
Comments