Lit - A Place In The Sun Chords & Tabs

 

A Place In The Sun Chords & Tabs

Lit Chords & Tabs

Version: 3 Type: Tab 0 ratings
1 star 2 stars 3 stars 4 stars 5 stars
comments

A Place In The Sun Tab

   
Band/Artist : Lit
Album       : A Place In The Sun
Added By Mikhailo (tabteam@ultimate-guitar.com)

1."Four"

Intro & Verses
|------------------|
|------------------|
|------------------|
|--3-3-3--7-7-8-8--|
|--1-1-1--5-5-6-6--|
|--1-1-1--5-5-6-6--|

Verses & Pre Chorus
|-----------------------------------|
|-----------------------------------|
|-----------------------------------|
|--X-X-7/8-X-X-6/7-X-X-5/6-X-X-4/5--|
|--X-X-7/8-X-X-6/7-X-X-5/6-X-X-4/5--|
|--X-X-5/6-X-X-4/5-X-X-3/4-X-X-2/3--|

|-------------------------------------------------------------------
|-------------------------------------------------------------------
|-------------------------------------------------------------------
|--7-7-7-7-7-7-7-7-6-6-6-6-6-6-6-6-5-5-5-5-5-5-5-5-5-5-5-5-5-5-5-5--
|--7-7-7-7-7-7-7-7-6-6-6-6-6-6-6-6-5-5-5-5-5-5-5-5-5-5-5-5-5-5-5-5--
|--5-5-5-5-5-5-5-5-4-4-4-4-4-4-4-4-3-3-3-3-3-3-3-3-3-3-3-3-3-3-3-3--


Chorus
|-------------------------------------------------------------------|
|-------------------------------------------------------------------|
|-------------------------------------------------------------------|
|--7-7-7-7-7-7-7-7-6-6-6-6-6-6-6-6-5-5-5-5-5-5-5-5-5-5-5-5-5-5-5-5--|
|--7-7-7-7-7-7-7-7-6-6-6-6-6-6-6-6-5-5-5-5-5-5-5-5-5-5-5-5-5-5-5-5--|
|--5-5-5-5-5-5-5-5-4-4-4-4-4-4-4-4-3-3-3-3-3-3-3-3-3-3-3-3-3-3-3-3--|

________________________________________________________________
2. My Own Worst Enemy

Intro: (Guitar 1)
e--------------|--------------|--------------|---------|----------------
B--------------|--------------|--------------|---------|----------------
G-8\9--9--9--9-|-8\9--9--9--9-|-8\9--9--9--9-|---------|----------------
D-8\9--9--9--9-|-8\9--9--9--9-|-8\9--9--9--9-|-9----7--|----------------
A-6\7--7--7--7-|-6\7--7--7--7-|-6\7--7--7--7-|-9----7--|----------------
E--------------|--------------|--------------|-7----5--|----------------
Intro: (Guitar 2) Enter thrid time
e--------------|--------------|--------------|---------|----------------
B--------------|--------------|--------------|---------|----------------
G--------------|--------------|--------------|---------|----------------
D-2--2--x------|-2--2--x------|-2--2--x------|-9----7--|----------------
A-2--2--x------|-2--2--x------|-2--2--x------|-9----7--|----------------
E-0--0--x------|-0--0--x------|-0--0--x------|-7----5--|----------------

Verse - Play Guitar 2 intro 4 times
Chorus (Guitar 2) Figure Out Rhythm On Your Own 
   E                       F#                      A               
Chorus (Guitar 1)
e-------------------------|-----------------------|---------------------
B-------------------------|-----------------------|---------------------
G--9--9--9--9--9--9--9--9-|9--9--9--9--9--9--9--9-|9--9--9--9--9--9--9--
D-------------------------|-----------------------|---------------------
A-------------------------|-----------------------|---------------------
E-------------------------|-----------------------|---------------------
         B    
e-------|------------------------|--------------------------------------
B-------|------------------------|--------------------------------------
G--9--9\|11-11\-14-14-14\-16-16//|--------------------------------------
D-------|------------------------|--------------------------------------
A-------|------------------------|--------------------------------------
E-------|------------------------|--------------------------------------
Solo: (Guitar 1) (Guitar 2 Chords Above)
  E                                   B  A          E
e-----------|-----------|-----------|-------------|-------------|-------
B-----------|-----------|-----------|-------------|-------------|-------
G.8\9--9--9-|-8\9--9--9-|-8\9--9--9-|-11-11------.|-13-13-13-13-|-------
D.8\9--9--9-|-8\9--9--9-|-8\9--9--9-|-11-11------.|-13-13-13-13-|-------
A-6\7--7--7-|-6\7--7--7-|-6\7--7--7-|-9--9--------|-11-11-11-11-|-------
E-----------|-----------|-----------|-------------|-------------|-------
                              B  A          E
e-------------|-------------|-------------|-------------------------|---
B-------------|-------------|-------------|-------------------------|---
G-13-13-13-13-|-13-13-13-13-|-14-14-------|-13-13\14-14\16-16\18-18-|---
D-13-13-13-13-|-13-13-13-13-|-14-14-------|-------------------------|---
A-11-11-11-11-|-11-11-11-11-|-12-12-------|-11-11\12-12\14-14\16-16-|---
E-------------|-------------|-------------|-------------------------|---
                                         Fill Before Chorus (Guitar 1)
e--------------------------------------|--------------------------------
B--------------------------------------|-H----H----H----H---------------
G-/16-16/14-14/13-13\14-14/13-13/11-11-|-9----9----9----9---------------
D--------------------------------------|--------------------------------
A-/14-14/12-12/11-11\12-12/11-11/-9--9-|--------------------------------
E--------------------------------------|--------------------------------
Key                                     Chords
H  Harmonic                             E 022xxx        B  799xxx
\  Slide Up    /Slide Down    A 577xxx    F# 244xxx


________________________________________________________________
3. Down
(har)stands for harmonics

Intro+verses:
|----------------------------------------------------------------------------------|
|----------------------------------------------------------------------------------|
|----------------------------------------------------------------------------------|
|--3-3-4------------3-3-4-----------3-3-5--3-3-4-----------3-3-4------------3-3-3--|
|--3-3-4------------3-3-4-----------3-3-5--3-3-4-----------3-3-4------------3-3-3--|
|--3-3-4-(har)4-4---3-3-4-(har)4-4--3-3-5--3-3-4-(har)4-4--3-3-4-(har)4-4---3-3-3--|

pre-chorus:
|-------------------------------------------------------------------|
|-------------------------------------------------------------------|
|-------------------------------------------------------------------|
|--6-6-6-6-6--8-8-8-8-8-8---3-3-4------------3-3-4-----------3-3-5--|
|--6-6-6-6-6--8-8-8-8-8-8---3-3-4------------3-3-4-----------3-3-5--|
|--4-4-4-4-4--6-6-6-6-6-6---3-3-4-(har)4-4---3-3-4-(har)4-4--3-3-5--|

chorus:
|--------------------------|
|--------------------------|
|--------------------------|
|--6-6-6-6-6--8-8-8-8-8-8--|
|--6-6-6-6-6--8-8-8-8-8-8--|
|--4-4-4-4-4--6-6-6-6-6-6--|


interlude at 2:00
|-----------------------------|
|-----------------------------|
|--------5-------------7------|
|------6---6---------8---8----|
|----6-------6-----8-------8--|
|--4-------------6------------|

________________________________________________________________

4. Miserable
intro:
|-----------------------------------|
|-----------------------------------|
|-----------------------------------|
|--9-9-9-9--6-6-6--3-3-3-3-3-3-3-3--|
|--9-9-9-9--6-6-6--3-3-3-3-3-3-3-3--|
|--7-7-7-7--4-4-4--1-1-1-1-1-1-1-1--|

verses:
|-------------------------------------------|
|-------------------------------------------|
|--4--4--4--4--4--4--4--4-------------------|
|--4--4--4--4--4--4--4--4--6-6-6-6-6-6-6-6--|
|--2--2--2--2--2--2--2--2--6-6-6-6-6-6-6-6--|
|--------------------------4-4-4-4-4-4-4-4--|

chorus:
|--------------------------------|
|--------------------------------|
|--4-4-4-4-4-4-------------------|
|--4-4-4-4-4-4--6-6-6-6-6-6-6----|
|--2-2-2-2-2-2--6-6-6-6-6-6-6----|
|---------------4-4-4-4-4-4-4----|


________________________________________________________________

5. No Big Thing
intro:
|------------------------------------------------------------|
|------------------------------------------------------------|
|------------------------------------------------------------|
|--7-7-7-7-7-7-7-7--6-6-6-6-6-6-6--3-3-3-3-3-3-3-3-3-3-3-3---|
|--7-7-7-7-7-7-7-7--6-6-6-6-6-6-6--3-3-3-3-3-3-3-3-3-3-3-3---|
|--5-5-5-5-5-5-5-5--4-4-4-4-4-4-4--1-1-1-1-1-1-1-1-1-1-1-1---|
[ Tab from: http://www.guitartabs.cc/tabs/l/lit/a_place_in_the_sun_tab_ver_3.html ]
verses: (palm mute the powerchord 5)
|-------------------------------------------------------------------------------------------|
|-------------------------------------------------------------------------------------------|
|-------------------------------------------------------------------------------------------|
|--7-7-7-7-7-7-7-7-7-7-7-7-7-7-7-7-7-7-7-7---7-7--6-6-6--5-5--4-4-4--7-7--6-6-6--5-5--4-4-4-|
|--7-7-7-7-7-7-7-7-7-7-7-7-7-7-7-7-7-7-7-7---7-7--6-6-6--5-5--4-4-4--7-7--6-6-6--5-5--4-4-4-|
|--5-5-5-5-5-5-5-5-5-5-5-5-5-5-5-5-5-5-5-5---5-5--4-4-4--3-3--2-2-2--5-5--4-4-4--3-3--2-2-2-|

chorus:
|----------------------------------|
|----------------------------------|
|----------------------------------|
|--7--6--5-5-5-5-5-5--4-4-4-4-4-4--|
|--7--6--5-5-5-5-5-5--4-4-4-4-4-4--|
|--5--4--3-3-3-3-3-3--2-2-2-2-2-2--|

________________________________________________________________

6.Ziplock
intro+verses:
|-----------------------------------------------|
|-----------------------------------------------|
|-----------------------------------------------|
|--5-5-5-5-5--7-7-7-7-7--6-6-6-6-6-6-6-6-6-6----|
|--5-5-5-5-5--7-7-7-7-7--6-6-6-6-6-6-6-6-6-6----|
|--3-3-3-3-3--5-5-5-5-5--4-4-4-4-4-4-4-4-4-4----|

verses:
|--------------|
|--------------|
|--------------|
|--5----7------|
|--5----7------|
|--3----5------|

chorus:
|--------------------------|
|--------------------------|
|--------------------------|
|--5-5-5-5-5--7-7-7-7-7----|
|--5-5-5-5-5--7-7-7-7-7----|
|--3-3-3-3-3--5-5-5-5-5----|

________________________________________________________________

7.Lovely Day"
intro:
|----------------------------------------------------------------------|
|----------------------------------------------------------------------|
|----------------------------------------------------------------------|
|--9-9-9-9-9-9-9-9--7-7-7-7-7-7-7-7--5-5-5-5-5-5-5-5--7-7-7-7-7-7-7-7--|
|--9-9-9-9-9-9-9-9--7-7-7-7-7-7-7-7--5-5-5-5-5-5-5-5--7-7-7-7-7-7-7-7--|
|--7-7-7-7-7-7-7-7--5-5-5-5-5-5-5-5--3-3-3-3-3-3-3-3--5-5-5-5-5-5-5-5--|

verses:
|--------------------------------------------------------------------|
|--------------------------------------------------------------------|
|--------------------9--7---------------------9--7-------------------|
|--9-9-9-9-9-9--7-7--9--7---9-9-9-9-9-9--7-7--9--7---9-9-9-9-9-9-9-9-|
|--9-9-9-9-9-9--7-7--7--5---9-9-9-9-9-9--7-7--7--5---9-9-9-9-9-9-9-9-|
|--7-7-7-7-7-7--5-5---------7-7-7-7-7-7--5-5---------7-7-7-7-7-7-7-7-|


|------------------------------------------------|
|------------------------------------------------|
|------------------------------------------------|
|--7-7-7-7-7-7-7-7--5-5-5-5-5-5-5-5-5-5-5-5-5-5--|
|--7-7-7-7-7-7-7-7--5-5-5-5-5-5-5-5-5-5-5-5-5-5--|
|--5-5-5-5-5-5-5-5--3-3-3-3-3-3-3-3-3-3-3-3-3-3--|
chorus:
|-----------------------------------------------|
|-----------------------------------------------|
|-----------------------------------------------|
|--9-9-9-9-9--7-7-7-7-7--5--5--5--5--5--5--5--5-|
|--9-9-9-9-9--7-7-7-7-7--5--5--5--5--5--5--5--5-|
|--7-7-7-7-7--5-5-5-5-5--3--3--3--3--3--3--3--3-|

________________________________________________________________
8.Perfect One

intro+verses:
|-----5-5-5-5-5-5-5-5-5--------3-3-3-3-3-3-3-3-3---|
|-----5-5-5-5-5-5-5-5-5--------3-3-3-3-3-3-3-3-3---|
|-----6-6-6-6-6-6-6-6-6--------4-4-4-4-4-4-4-4-4---|
|--7------------------------5----------------------|
|--7------------------------5----------------------|
|--5------------------------3----------------------|

pre-chorus:
|---------------------------|
|---------------------------|
|---------------------------|
|--7--5--8-8-8-8--6-6-6-6---|
|--7--5--8-8-8-8--6-6-6-6---|
|--5--3--6-6-6-6--4-4-4-4---|

chorus:
|-----5-5-5-5-5-5-5-5-5--------3-3-3-3-3-3-3-3-3------6-6-6-6-6-6-6-6-6-----4-4-4-4-4-4-4-4-4--|
|-----5-5-5-5-5-5-5-5-5--------3-3-3-3-3-3-3-3-3------6-6-6-6-6-6-6-6-6-----4-4-4-4-4-4-4-4-4--|
|-----6-6-6-6-6-6-6-6-6--------4-4-4-4-4-4-4-4-4------7-7-7-7-7-7-7-7-7-----5-5-5-5-5-5-5-5-5--|
|--7------------------------5-----------------------8------------------------6-----------------|
|--7------------------------5-----------------------8------------------------6-----------------|
|--5------------------------3-----------------------6------------------------4-----------------|


________________________________________________________________

9.Quicksand
(B)bend
intro: verses:
|-----------------------------------------|
|--17b------------------------------------|
|--16b------------------------------------|
|---------6-6-6-6--4-4-4-4--6-6-6--4-4-4--|
|---------6-6-6-6--4-4-4-4--6-6-6--4-4-4--|
|---------4-4-4-4--2-2-2-2--4-4-4--2-2-2--|

verses:
|---------------------------------|
|---------------------------------|
|---------------------------------|
|--6-6-6-6-6-6-6--4-4-4--4-4-4----|
|--6-6-6-6-6-6-6--4-4-4--4-4-4----|
|--4-4-4-4-4-4-4--2-2-2--2-2-2----|

interlude at 1:40
|-----------------------------|
|-----------------------------|
|-----------------------------|
|--4-4-4--5-5-5--7-7-7--9-9-9-|
|--4-4-4--5-5-5--7-7-7--9-9-9-|
|--2-2-2--3-3-3--5-5-5--7-7-7-|

________________________________________________________________

10.Happy
intro+verses:
|----------------------------------------|
|----------------------------------------|
|--4-4-4-4--3/4-4-4-4--------------------|
|--4-4-4-4--3/4-4-4-4--6-6-6-6--4-4-4-4--|
|--2-2-2-2--1/2-2-2-2--6-6-6-6--4-4-4-4--|
|----------------------4-4-4-4--2-2-2-2--|

pre-chorus:
|-----------------------------------------|
|-----------------------------------------|
|-----------------------------------------|
|--6-6-6-6--4-4-4-4--3-3-3-3-3-3-3-3-3-3--|
|--6-6-6-6--4-4-4-4--3-3-3-3-3-3-3-3-3-3--|
|--4-4-4-4--2-2-2-2--1-1-1-1-1-1-1-1-1-1--|

chorus:
|----------------------------------------------|
|----------------------------------------------|
|----------------------------------------------|
|--7-7-7-7-7--5-5-5-5-5--8-8-8-8-8--6-6-6-6-6--|
|--7-7-7-7-7--5-5-5-5-5--8-8-8-8-8--6-6-6-6-6--|
|--5-5-5-5-5--3-3-3-3-3--6-6-6-6-6--4-4-4-4-4--|

3rd verse:
|-----------------------------|
|-----------------------------|
|-----------------------------|
|--3-3-3-3-3-3--7-7-7-7-7-7---|
|--3-3-3-3-3-3--7-7-7-7-7-7---|
|--1-1-1-1-1-1--5-5-5-5-5-5---|

________________________________________________________________
11. The Best Is Yet To Come Undone

intro:
|----------------------------------------------------------------|
|----------------------------------------------------------------|
|--X-X-3--X-X-X-3--X-X-3--X-X-X-3--7-7-7-7-7-7-7-7-7-7-7-7-7-7---|
|--X-X-3--X-X-X-3--X-X-3--X-X-X-3--7-7-7-7-7-7-7-7-7-7-7-7-7-7---|
|--X-X-1--X-X-X-1--X-X-1--X-X-X-1--5-5-5-5-5-5-5-5-5-5-5-5-5-5---|
|----------------------------------------------------------------|

chorus+interlude:
|------------------------------------|
|------------------------------------|
|------------------------------------|
|--4-4-4-4-4-4-4-4--7-7-7-7-7-7-7-7--|
|--4-4-4-4-4-4-4-4--7-7-7-7-7-7-7-7--|
|--2-2-2-2-2-2-2-2--5-5-5-5-5-5-5-5--|


________________________________________________________________

12.A Place In The Sun
intro:
|-----------------|
|-----------------|
|--4-4-4-4--------|
|--4-4-4-4--3-----|
|--2-2-2-2--3-----|
|-----------1-----|

pre-chorus:
|------------------|
|------------------|
|-----4-4-4--5-5-5-|
|--3--4-4-4--5-5-5-|
|--3--2-2-2--3-3-3-|
|--1---------------|

chorus:
|----------------------------------|
|----------------------------------|
|----------------------------------|
|--4-3--4-3--4-3--7-7-7--6-6-6--5--|
|--4-3--4-3--4-3--7-7-7--6-6-6--5--|
|--2-1--2-1--2-1--5-5-5--4-4-4--3--|

interlude at 1:37 + next chorus and verse
|---------------------------------------------------|
|---------------------------------------------------|
|---------------------------------------------------|
|--5-X-X-X-X-X-X-X-4-X-X-X-X-X-X-X-3-X-X-X-X-X-X-X--|
|--5-X-X-X-X-X-X-X-4-X-X-X-X-X-X-X-3-X-X-X-X-X-X-X--|
|--3-X-X-X-X-X-X-X-2-X-X-X-X-X-X-X-1-X-X-X-X-X-X-X--|

|----------------------------------------------------------------------------------------------|
|----------------------------------------------------------------------------------------------|
|----------------------------------------------------------------------------------------------|
|--6-6-6-6-6-6-6-6-6-6-6--4-4-4-4-4-4-4-4-4-4-4--5-5-5-5-5-5-5-5-5-5-5--3-3-3-3-3-3-3-3-3-3-3--|
|--6-6-6-6-6-6-6-6-6-6-6--4-4-4-4-4-4-4-4-4-4-4--5-5-5-5-5-5-5-5-5-5-5--3-3-3-3-3-3-3-3-3-3-3--|
|--4-4-4-4-4-4-4-4-4-4-4--2-2-2-2-2-2-2-2-2-2-2--3-3-3-3-3-3-3-3-3-3-3--1-1-1-1-1-1-1-1-1-1-1--|

outro:
|-------------------------------------------------|
|-------------------------------------------------|
|-------------------------------------------------|
|--6-6-6-6-6-6-6-6-6-6-6--4-4-4-4-4-4-4-4-4-4-4---|
|--6-6-6-6-6-6-6-6-6-6-6--4-4-4-4-4-4-4-4-4-4-4---|
|--4-4-4-4-4-4-4-4-4-4-4--2-2-2-2-2-2-2-2-2-2-2---|
Comments