Lisa Miskovsky - Driving One Of Your Cars Chords & Tabs

 

Driving One Of Your Cars Chords & Tabs

Lisa Miskovsky Chords & Tabs

Version: 1 Type: Tab 0 ratings
1 star 2 stars 3 stars 4 stars 5 stars
comments

Driving One Of Your Cars Tab

   
Lisa Miskovsky - Driving one of your cars.
 Tabbed by Daniel Johnsson, opt00dj1@student.ki.se.
  
Intro:

    Em                         
E[--3-3-3-2-2-2-2-2-3-3-3-2-2-2-2-2---]
B[--0-0-0-0-0-0-0-0-0-0-0-0-0-0-0-0---]
G[---------------------------------------]
D[--------------------------------------]
A[----------------------------------]
E[--------------------------------------------]

     G                         D
E[--3-3-3-2-2-2-2-2-3-3-3-2-2-2-2-2---]
B[--3-3-3-3-3-3-3-3-3-3-3-3-3-3-3-3---]
G[--------------------------------------------]
D[--------------------------------------------]
A[--------------------------------------------]
E[--------------------------------------------]
[ Tab from: http://www.guitartabs.cc/tabs/l/lisa_miskovsky/driving_one_of_your_cars_tab.html ]
Verse1
           C     G           D
Saw you go high above autumn clouds 
           C                         G            Blinded my eyes when the sparks grew bigger than your 
D
lies 
                     C        G             D
You´re concealed but still so wonderful, so magical
           C                   G           D
Blinded my forehead, say can I see if it´s me

   Em       G            C                G
So cold, So cold…Meet me there, alone and spared
                         D
Cause I´m driving one of your cars

Chorus same as intro: Play 3 times:
Uuuuhh…..    …Cause I´m driving one of your cars

Verse2
Kelowna is beautiful in summertime they say 
but, even if I am sorrounded I wish you´ll stay 
but, it´s never been your style, fun for a while, then you´re on your own 
still I found the greatest force that´s been ever known 

So cold...

Repeat Chorus
 
:: Ultimate Guitar Archive :: 
http://www.ultimate-guitar.com 



Comments