Liquido - Play Some Rock Chords & Tabs

 

Play Some Rock Chords & Tabs

Liquido Chords & Tabs

Version: 1 Type: Bass Tab 0 ratings
1 star 2 stars 3 stars 4 stars 5 stars
comments

Play Some Rock Bass Tab

artist: Liquido
song: Play some rock

-very easy -

                                    ________    ________
Chorus                              1.          2.
|-----------|-----------|----------|-----------|---------|
|*----------|-----------|----------|-------22-*|------2--|
|*----------|-111111111-|----------|-333555---*|-3335----|
|--11111111-|-----------|-33333333-|-----------|---------|
                                                 1+2+3+4

[ Tab from: http://www.guitartabs.cc/tabs/l/liquido/play_some_rock_btab.html ]
Verse
|-------------|------------|------------|------------|
|*------------|------------|------------|------------|
|*------------|-1-1-1-11-1-|------------|-3-3-3-33-1-|
|--1-1-1-11-1-|------------|-3-3-3-33-3-|------------|
   1 2 di3+4+   1 2 di3+4+   1 2 di3+4+   1 2 di3+4+
                                        ________     ________
                                        1.           2.
|------------|------------|------------|------------|----------|
|------------|------------|------------|--------13-*|-------22-|
|------------|-1-1-1-11-1-|------------|-3-3-3-3---*|-333555---|
|-1-1-1-11-1-|------------|-3-3-3-33-3-|------------|----------|
  1 2 di3+4+   1 2 di3+4+   1 2 di3+4+   1 2 di3+4    1+2+3+4+


Chorus

Verse

Chorus

Interlude
|-----------|-----------|----------|-----|----------|----------|
|*----------|-----------|----------|----*|----------|----------|
|*----------|-333333333-|----------|----*|----------|-33333333-|
|--55555555-|-----------|-11111111-|-1---|-55555555-|----------|

Chorus 2x


have fun

made by wieter
dewietje69@hotmail.com
Comments