Liquido - Doubledecker Chords & Tabs

 

Doubledecker Chords & Tabs

Liquido Chords & Tabs

Version: 2 Type: Tab 0 ratings
1 star 2 stars 3 stars 4 stars 5 stars
comments

Doubledecker Tab

   
Liquido , doubledecker.
 Tabbed by Nicolas Grummel, nicolasgrummel@hotmail.com.
  
Artist : Liquido
Song : double decker

tabbed by Nicolas Grummel
please send any comments or corrections to nicolasgrummel@hotmail.com


Chords :
      F     C     A#    G     D
e|--- x --- x --- x --- x --- x ---|
B|--- x --- x --- x --- x --- x ---|
G|--- x --- x --- x --- x --- x ---|
D|--- 3 --- 10--- 8 --- 5 --- 12---|
A|--- 3 --- 10--- 8 --- 5 --- 12---|
E|--- 1 --- 8 --- 6 --- 3 --- 10---|



verse :

Just repeat this a couple of times . Your fingers rest on the strings .

e|--------------------------------|
B|--------------------------------|
G|--------------------------------|
D|-----3-/---8-/-------10-\\-----8-|
A|---3---/-8---/---10-----\\---8---|
E|-1-----/-----/-8--------\\-6-----|



Chorus :
[ Tab from: http://www.guitartabs.cc/tabs/l/liquido/doubledecker_tab_ver_2.html ]
The chorus is always played 4 times. In the last chorus you play 
two times F C A# and then two times G D C . 

   F               C           A#
e|-----------------------------------|
B|-----------------------------------|
G|-----------------------------------|
D|-3-3-3-3-3-3-3-3-10-10-10-10-8-8-8-|
A|-3-3-3-3-3-3-3-3-10-10-10-10-8-8-8-|
E|-1-1-1-1-1-1-1-1- 8- 8- 8- 8-6-6-6-|

NOTE : You can play also play C (xx553x) , A# (xx331x) and D (xx775x) , but
       it sounds better when you slide from chord to chord !


Brigde :

The bridge part where he simply says : \"I like that...yes,I really like that\"
consists of the verse part , played four times .

Outro riff :

The outro riff is F C A# , but the timing is differnet . But I think you can
get it . The song ends on F(fade out) .


If you search for the text , check out www.liquido.de !


thx
eNGy 
:: Ultimate Guitar Archive :: 
http://www.ultimate-guitar.com 



Comments