Liquido - Doubledecker Chords & Tabs

 

Doubledecker Chords & Tabs

Liquido Chords & Tabs

Version: 1 Type: Tab 0 ratings
1 star 2 stars 3 stars 4 stars 5 stars
comments

Doubledecker Tab

   
Artist : Liquido
Song   : Doubledecker

Tabbed by AWR 16:10 MEZ 17.02.2002

Main Chords :
F C A#

__::Intro
e--------------------------------------------------------
H--------------------------------------------------------
G--------------------------------------------------------
D-3--------------3-------------3-------------3--3-3333---
A-3--------------3-------------3-------------3--3-3333---
E-1--------------1-------------1-------------1--1-1111---

__::1# Verse 
e-------------------------------------
H-------------------------------------
G-------------------------------------
D-----3-----8--------10----------8----   (9x)
A---3-----8-------10----10-----8---8--
E-1-----/-----\-8----------/-6--------
 
__::Chorus
e----------------------------------------------
H----------------------------------------------
H----------------------------------------------
G----------------5**************3**************
D-3**************5**************3**************
A-3**************3**************1**************
E-1**************------------------------------
 Big Boy Doubledecker makin' my heart go quicker  
                                                       (2x)
e----------------------------------------------
H----------------------------------------------
H----------------------------------------------
G----------------5**************3**************
D-3**************5**************3**************
A-3**************3**************1**************
E-1**************------------------------------
   It's a bad game - dreadful like magrine !!!

__::Bridge
e--------------------------------
H--------------------------------
G----------3-----5--------3------
D-----3--3-----5---5----3---3----   (2x)
A---3--------3--------1----------
E-1------------------------------

__::2# Verse
e-----------------------------------------------------------------
H-----------------------------------------------------------------
G-----------------------------------------------------------------
D-----3-----8--------10----------8---------3-----8--------------3-   
A---3-----8-------10----10-----8---8-----3-----8--------------3---
E-1-----/-----\-8----------/-6-------\-1-----/--------------1-----
                                           .."so uninspired"...   

e-------------------------------------
H-------------------------------------
G-------------------------------------
D-----3-----8--------10----------8----   (4x)
A---3-----8-------10----10-----8---8--
E-1-----/-----\-8----------/-6--------

__::Chorus
(See above)
[ Tab from: http://www.guitartabs.cc/tabs/l/liquido/doubledecker_tab.html ]
__::3# Verse
e-------------------------------------
H-------------------------------------
G-------------------------------------
D-----3-----8--------10----------8----   (3x)
A---3-----8-------10----10-----8---8--
E-1-----/-----\-8----------/-6--------

__::End Chorus 
Part 1:
e----------------------------------------------
H----------------------------------------------
H----------------------------------------------
G----------------5**************3**************
D-3**************5**************3**************
A-3**************3**************1**************
E-1**************------------------------------
 Big Boy Doubledecker makin' my heart go quicker  
                                                     (2x)
e----------------------------------------------
H----------------------------------------------
H----------------------------------------------
G----------------5**************3**************
D-3**************5**************3**************
A-3**************3**************1**************
E-1**************------------------------------
   It's a bad game - dreadful like magrine !!!

Part 2 :
e----------------------------------------------
H----------------------------------------------
H----------------------------------------------
G----------------9**************7**************
D-7**************9**************7**************
A-7**************7**************5**************
E-5**************------------------------------
 Big Boy Doubledecker makin' my heart go quicker  
                                                     (2x)           
e----------------------------------------------
H----------------------------------------------
H----------------------------------------------
G----------------9**************7**************
D-7**************9**************7**************
A-7**************7**************5**************
E-5**************------------------------------
   It's a bad game - dreadful like magrine !!!

__::Solo
Rhythm :
e----------------------------------------------
H----------------------------------------------
H----------------------------------------------
G----------------9**************7**************      (5x)
D-7**************9**************7**************
A-7**************7**************5**************
E-5**************------------------------------     

Solo :
e--------------------------------------------------
H--------------------------------------------------
G-6**************9**************7**************\4--  (5x)
D-7**************9**************7**************\4--  
A--------------------------------------------------
E--------------------------------------------------

__::Outro 
e--------
H--------
G-6~~~~--
D-7~~~~--
A-7~~~~--
E-5~~~~--


__::Keys
*** = Palm Mute
/   = Slide Up
\   = Slide Down
~   = Let it ring out



Comments , Questions , Congratulations etc. to : 
theeoutcast@lycos.de

Comments