Liquid Tension Experiment - Another Dimension Chords & Tabs

 

Another Dimension Chords & Tabs

Liquid Tension Experiment Chords & Tabs

Version: 1 Type: Tab 0 ratings
1 star 2 stars 3 stars 4 stars 5 stars
comments

Another Dimension Tab

   
*************************************************************************************
* LIQUID TENSION EXPERIMENT - ANOTHER DIMENSION (From: LIQUID TENSION EXPERIMENT 2) *
*************************************************************************************
 Music By: Liquid Tension Experiment

Transcribed By: Niclas Buss
Days tabbed: 23.10.2000
email: nbuss@ironmaiden.com

Please mail me if you can find mistakes!

-----------------------------------------

 Normal Tuning!!
		      	    Guitar enters at (0:49)
E-----------------------------------------------------------------------------------|
B-------------------------|---------------------------------------------------------|
G--Bass-&-Keyboard-Intro--|*--------------------------------------------------------|
D-------------------------|*--------------------------------------------------<3><3>|
A-------------------------|---------------------------------------------------------|
E----------------------------0-0-0--0--0--0-0-0-0--0--0--0-0-0-0--0--0--0-0-0-------|

E-----------------------------------------------------------------------------------|
B-----------------------------------------------------------------------------------|
G-----------------------------------------------------------------------------------|
D-/-<5>-/-<7>----------------------------------------<7><7>-\-<5><5>-\-<3><3>-\-----|
A-------------/-<7>-----------------------------------------------------------------|
E-------------------<7>--0-0-0--0--0--0-0-0-0--0--0------------------------------0-0|

E-----------------------------------------------------------------------------------|
B-----------------------------------------------------------------------------------|
G-----------------------------------------------------------------------------------|
D-----------------------------------------------<3><3>-/-<5>-/-<7>------------------|
A------------------------------------------------------------------/-<7>------------|
E-0--0--0--0-0-0-0--0--0--0-0-0-0--0--0--0-0-0---------------------------<7>--0-0-0-|
                               _________________________________ ___________________
			      |1.				|2.
E-----------------------------|---------------------------------|-------------------|
B-----------------------------|---------------------------------|-------------------|
G-----------------------------|-4-------4----------------------*|-------------------|
D-----------------------------|---5-7-5---5-7-------5-7-5------*|-------------------|
A-----------------------------|---------------5---5-------5-----|--5-7-------5-7----|
E--0--0--0-0-0-0--0--0--0-0-0-|-----------------3-----------3---|------6-5-0-----6-5|
 ______________
               |
E--------------||-------------------------------------------------------------------|
B--------------||-------------------------------------------------------------------|
G--------------||-------------------------------------------------------------------|
D--------------||------------------------------------------------------------4-2----|
A---5-7--------||----------------------------------------------------------------4-3|
E-0-----6-5-0--||--2-2-2-2--2--2--0--2-2-2-2--2--2--0--2-2-2-2--2--2--0--2-2--------|

E-----------------------------------------------------------------------------------|
B-----------------------------------------------------------------------------------|
G-----------------------------------------------------------------------------/4~---|
D--------------------------------------------------------------------4p2----------4p|
A-2----------------------------------------------------------------------4p2--------|
E---5-2p0--2-2-2-2--2--2--0--2-2-2-2--2--2--0--2-2-2-2--2--2--0--2-2----------------|

E-----------------------------------------------------------------------------------|
B-----------------------------------------------------------------------------------|
G----------2-3-4~-------------------------------------------------------------------|
D2---2-3-4--------------------------------------------------------------------------|
A--4--------------------------------------------------------------------------4-----|
E-----------------2-2-2-2--2--2--0--2-2-2-2--2--2--0--2-2-2-2--2--2--0--2-2-2---2-2-|

E-----------------------------------------------------------------------------------|
B----------------------------------------------------------5--5---5\---5--5---5\----|
G----------------4-6---------------------------------------6--6---6\---6--6---6\----|
D------------4-7-------------------------------------------6--6---6\---6--6---6\----|
A-2---2-4-/7-----------------------------------------------4--4---4\---4--4---4\----|
E---2-----------------\2-2-2-2--2--2--0--2-2-2-2--2--2--0-------------------------/-|
[ Tab from: http://www.guitartabs.cc/tabs/l/liquid_tension_experiment/another_dimension_tab.html ]
E----------------------------9-------12-0\------------------------------------------|
B----------------------9---9---12-10----0\--|---------------------------------------|
G--------------9-----9---9------------------|---------------------------------------|
D-------9---10----10------------------------|---------------------------------------|
A----10---9---------------------------------|---------------------------------------|
E--9-------------------------------------------0-0-0--0--0--0-0-0-0--0--0--0-0-0-0--|

E-----------------------------------------------------------------------------------|
B-----------------------------------------------------------------------------------|
G-----------------------------------------------------------------------------------|
D-------------------------------------------------------------------------9-----9~--|
A-------------------------------------------------------------------------7-----8~--|
E--0--0--0-0-0-0-0-0-0-0-0-0-0-0--0--0--0-0-0-0--0--0--0-0-0-0--0--0--0-0---0-0-----|

E-----------------------------------------------------------------------------------|
B-----------------------------------------------------------------------------------|
G-----------------------------------------------------------------------------------|
D-----------------------------------------------------------------------------------|
A-----------------------------------------------------------------------------------|
E--0-0-0--0--0--0-0-0-0--0--0--0-0-0-0--0--0--0-0-0-0-0-0-0-0-0-0-0-0--0--0--0-0-0-0|

							     x7
E-----------------------------------------------------------------------------------|
B------------------------------------|--------------------------|-------------------|
G------------------------------------|*------------------------*|-------------------|
D--------------------------9-----7~--|*------------------------*|------------------/|
A--------------------------7-----7~--|---4--\--2--/--4\---------|--4--\--2--/--4\--/|
E-0--0--0-0-0-0--0--0--0-0---0-0---------2--\--0--/--2\---2-2------2--\--0--/--2\---|

E-----2~--------------------------------------------------------3~------------------|
B-----2~--------------------------------------------0-----------3------6b(8)~-r6-5--|
G--4--4~---5---------11--11~--/7---------7~------------\2-------5---5---------------|
D--4-------5------9-------9~------5------5~-------2-------2-----5-------------------|
A--2-------3--/7----------7~---------3---3~---\0------------0---3-------------------|
E--2-------3----------------------------------------------------3-------------------|

					 Guitar Solo 1
E-----------------------------------------------------------------------------------|
B--------------------------------------|--10-h11p10p8h10-10~--10-/-17-17~--15--17---|
G--4~----------------------------------|--------------------------------------------|
D--4~---3~--2-0------------------------|--------------------------------------------|
A--2~------------1--0--------3---------|--------------------------------------------|
E--2~------------------3-1-0---3-3-3------------------------------------------------|

E-----------------------------------------------------------------------------------|
B-17-/-18~---\11-11~-h13p11p10h11-11~-----------------------------------------------|
G-------------------------------------12~--h14-15--14h15p14~-\10-10~--9-9-h10p9p7~~-|
D-----------------------------------------------------------------------------------|
A-----------------------------------------------------------------------------------|
E-----------------------------------------------------------------------------------|

E-----------------------------------------------------------------------------------|
B--------------------------------------------------------10h11p10----10~--/-17-17~~-|
G-9-10-9--h10p9p7-\6~------------------9h10p9----9-10-13----------13----------------|
D-.--------------------7-h8p7-8-/11-12--------12------------------------------------|
A-----------------------------------------------------------------------------------|
E-----------------------------------------------------------------------------------|

E-----------------------------------------------------------------------------------|
B-----------------------------------------------------------------------------------|
G-\-14~-----------------------------------------------------------------------------|
D-----------14----------------------------------------------------------------------|
A--------12-------------------------------------------------------------------------|
E-----------------------------------------------------------------------------------|

.... under construction......

--------------------------------------------------------------------------------------

=======================
=TABLATURE EXPLANATION=
=======================

A.H. = Artificial Harmonic

pm..| = Palm mute

h = hammer on

p = pull off

/ = slide up

\ = slide down

~ = Vibrato

b() = Bend

x\ = Pick Slide

--------
--------
---12--- = Tremolo pick
----/---
----/---
----/---

---.---
--12--- = Staccato
-------
-------
-------

|     |
|     |
|*   *| = repeat from * to *
|*   *| 
|
Comments