Lipps Inc - Funky Town Chords & Tabs

 

Funky Town Chords & Tabs

Lipps Inc Chords & Tabs

Version: 4 Type: Tab 0 ratings
1 star 2 stars 3 stars 4 stars 5 stars
comments

Funky Town Tab

Lipps Inc. - Funky Town
Standard Tuning - Eadgbe

killer_monkey_in_the_wardrobe@hotmail.com

E|--------------------------|
B|-----------------10-9-----|
G|--9-9-7-9------9------9---|
D|----------9--9------------|
A|--------------------------|
E|--------------------------|
[ Tab from: http://www.guitartabs.cc/tabs/l/lipps_inc/funky_town_tab_ver_4.html ]
E|--------------------------|
B|-----------------10-9-----|
G|--9-9-7-9------9------9---|
D|----------9--9------------|
A|--------------------------|
E|--------------------------|

Picked this up after watching the south park episode with towelie where he plays this 
on a miltary base keypad LOL :D
Comments