Lipps Inc - Funky Town Chords & Tabs

 

Funky Town Chords & Tabs

Lipps Inc Chords & Tabs

Version: 2 Type: Tab 0 ratings
1 star 2 stars 3 stars 4 stars 5 stars
comments

Funky Town Tab

GLove1012@aol.com
steviepp@optonline.net
Oh yea get schwolay!!!


|--------------------------------------------------------------------
|---------------6-5--------------------------------------------------
|-5-5-3-5-----5-----5-----------------5-4----------------------------
|---------5-5-----------5-5-3-5-----5-----5--------------------------
|-------------------------------5-5----------------------------------
|--------------------------------------------------------------------
|
|---5---5---5---5---5------------------------------------------------
|-------------------------5---5---5---5---5--------------------------
|-3---3---3---3---3--------------------------------------------------
|-----------------------3---3---3---3---3----------------------------
[ Tab from: http://www.guitartabs.cc/tabs/l/lipps_inc/funky_town_tab_ver_2.html ]
  C?                                [ repeat strum as before    ]
|-3---3-3---------3---3-3--------------------------------------------
|-4---4-4---------4---4-4--------------------------------------------
|-3---3-3---------3---3-3--------------------------------------------
|-5---5-5---------5---5-5--------------------------------------------
|-3---3-3---------3---3-3--------------------------------------------
|--------------------------------------------------------------------
|
|--------------------------------------------------------------------
|--------------------------------------------------------------------
|-3-3-----1-1-2-2-3-3-----1-1-2-----3-3-----1-1-2-2-3-3-----1-1-2----
|-----3-3-------------3-3---------------3-3-------------3-3----------

gotta make a move to a town that's right for me
a town to keep me movin' keep me groovin' with some energy
well, i talk about it (X4)
talk about (X3)  moovin'
gotta' move on (X3)

won't you take me to funkytown (X4)
   (break it down)
won't you take me to funkytown (X4)

   (once more from the top)

take me won't you take me (X4)
i wanna go, to funkytown now (X4)
Comments