Lipps Inc - Funky Town Chords & Tabs

 

Funky Town Chords & Tabs

Lipps Inc Chords & Tabs

Version: 1 Type: Bass Tab 0 ratings
1 star 2 stars 3 stars 4 stars 5 stars
comments

Funky Town Bass Tab

this is the narliest song ever

tuning-standard-EADG

riff 1

1--5--5--5--5------------|
2------------------------| x2
3-3--3--3--3-------------|
4------------------------|

riff 2

1-----------------------------|
2--5--5--5--5-----------------|  x2
3-----------------------------|
4-3--3--3--3------------------|

riff 3
[ Tab from: http://www.guitartabs.cc/tabs/l/lipps_inc/funky_town_btab.html ]
1---12--12--10-10--9--9--7--7--|
2------------------------------|
3-10--10---8--8---7--7--5--5---|
4------------------------------|

riff 4

1-----------------------------|
2-----------------------------| x2
3-33--11-22-33--11-22---------|
4---33--------33--------------|

riff 5

1-----------------------------|
2-----------------------------|
3-8888-88---------------------|
4-----------------------------|


you can put these in order yourself

peace
Comments