Lior - This Old Love Chords & Tabs

 

This Old Love Chords & Tabs

Lior Chords & Tabs

Version: 1 Type: Tab 0 ratings
1 star 2 stars 3 stars 4 stars 5 stars
comments

This Old Love Tab

   
Author/Artist: Lior
Title: This Old Love
Album: Autumn Flow
Transcribed by: Lior/James Amiet
CAPO ON 6


Great song from an up and coming Aussie artist. www.lior.com.au


  G3	   F#/D		C		      Bb        Csus2	   G

----0---------------|----------------------|--------------------|----3--------|
------3------3------|----1--------1--------|----3--------0------|------3------|
--------3------0----|------0----------0----|------3--------5----|--------0----|
----0--------0---0--|----2---2----0h2---2--|----3---3----5---5--|----0--------|
--------------------|--3--------3----------|--1--------3--------|-------------|
--3--------2--------|----------------------|--------------------|--3-------3--|


------------|-|----3---------------3--|-|-------------------------------------|
------------|-|------3-------------3--|-|-------------------------------------|
------------|0|--------0-----------0--|-|----Intro/Verse----------------------|
------0-----|0|----0-----------0------|-|-------------------------------------|
--0h2---0---|-|------------0h2---2----|-|-------------------------------------|
------------|-|--3-------3------------|-|-------------------------------------|


  Em                   C                     Bm7      Am7         D4

-------------0------|---------------------|--------------------|--------------|
----0----------0----|----1-------1--------|----3--------1------|----3---------|
------0----------0--|------0---------0----|------2--------0----|------0-------|
--------2----2------|----2---2---0h2---2--|----4---4----2---2--|----4---4-----|
----2------2--------|--3-------3----------|--2--------0--------|--5--------5--|
--0-----------------|---------------------|--------------------|--------------|

           Em                   Bm7     Em          C       Am7         D4

-0------|-------------0------|-------------------|-------------------|--------|
--------|----0----------0----|----3-------0------|----1-------1------|----3---|
---0----|------0----------0--|------2-------0----|------0-------0----|--------|
-4------|--------2----2------|----4---4-------2--|----2---2---2---2--|----4---|
--------|----2------2--------|--2---------2------|--3-------0--------|--5-----|
--------|--0-----------------|----------0--------|-------------------|--------|

[ Tab from: http://www.guitartabs.cc/tabs/l/lior/this_old_love_tab.html ]
--------|-|-------------------------------------------------------------------|
--------|-|-------------------------------------------------------------------|
-0------|-|--------Pre-Chorus-------------------------------------------------|
---4----|-|-------------------------------------------------------------------|
-----5--|-|-------------------------------------------------------------------|
--------|-|-------------------------------------------------------------------|


  G                   G                   F#9                 Csus2

----3--------------|----3--------------|-------------------|------------0-----|
------3-----3------|------3-----3------|----0-------0------|----3---------3---|
--------0-----0----|--------0-----0----|------2-------2----|------0---------0-|
----0-------0---0--|----0-------0---0--|----2---2---2---2--|----2---2---2-----|
----------2--------|----------2--------|--4-------4--------|--3-------3-------|
--3----------------|--3----------------|-------------------|------------------|


---|-|------------------------------------------------------------------------|
---|-|------------------------------------------------------------------------|
---|-|-----Chorus---now-go-again-from-the-top---------------------------------|
-2-|-|------------------------------------------------------------------------|
---|-|------------------------------------------------------------------------|
---|-|------------------------------------------------------------------------|


   F#/A                B7                   Amsus2   Csus2(ii) Csus

--------------------|----2--------2------|----0-------------------------------|
----0--------0------|------0--------0----|------0------0--------3-------------|
------2--------2----|--------2--------2--|--------0------2--------0-----------|
----2---2----2---2--|----1--------1------|----5--------3---3----2---2---------|
--------------------|--2--------2--------|--7--------5--------3---------------|
--2--------2--------|--------------------|------------------------------------|


---0------|-|----0------|-|---------------------------------------------------|
-----0----|-|------3----|-|---------------------------------------------------|
-------0--|0|--------0--|-|-----bridge---play-chorus-and-finish-on-verse------|
---2------|0|----2------|-|---------------------------------------------------|
-3--------|-|--3--------|-|---------------------------------------------------|
----------|-|-----------|-|---------------------------------------------------|

F#/D - 22033x
Csus2(ii) - x35200
D4 - x54030
Amsus2 - x75000
Csus2(x) - x53200
F#9 - x42200
B7 - x21202
F#/A - 2x2200
Comments