Lionel Richie - Stuck On You Chords & Tabs

 

Stuck On You Chords & Tabs

Lionel Richie Chords & Tabs

Version: 1 Type: Tab 0 ratings
1 star 2 stars 3 stars 4 stars 5 stars
comments

Stuck On You Tab

   
                          Stuck On You
                         Lionel Ritchie

Tab by:omanyen@fusemail.com
                                   /=slide up  \=slide down
                                   h=hammer    r=rake(pull-off)
 INTRO :                           
  F                Am               Bb         C          Bb         C
----------------|----------------|----------|----------|----------|----------|
--------6-------|--------5-------|--3------3|--5------5|--3------3|--5------5|
------5---5-----|------5---5-----|--3----3--|--5----5--|--3----3--|--5----5--|
----7-------7---|----7-------7---|-----3----|-----5----|-----3----|-----5----|
--8-----------8-|--7-----------7-|----------|----------|----------|----------|
----------------|----------------|--6-------|--8-------|--6-------|--8-------|


INTRO LEAD:
----------------|---------------|----------------------|
----------------|---------------|----------------------|
----------------|---------------|----------------------|
--3--5/7\5--3--5|-3--5/7\5--3---|-----3-5-3----------3-|
----------------|--------------5|-3h5-------5-3--3h5---|
----------------|---------------|----------------------|


----------------|---------------|----------------------|
----------------|---------------|----------------------|
----------------|---------------|----------------------|
--3--5/7\5--3--5|-3--5/7\5--3---|-----3----------------|
----------------|--------------5|-3h5---5--3-----------|
----------------|---------------|-------------5\3--1---|
[ Tab from: http://www.guitartabs.cc/tabs/l/lionel_richie/stuck_on_you_tab.html ]
 F        Am            Bb                       C                     F

Stuck on you.  Got this feelin' down deep in my soul that I just can't lose.

          Am    Bb    C

Guess I'm on my way.

 F          Am             Bb               C                          F

I needed a friend, and the way now I guess I'll be with you 'till the end.

          Am    Bb    C

Guess I'm on my way.

 F         Am           Bb                       C                     F

So hard to see, that a woman like you could wait around for a man like me.

          Am    Bb    C

Guess I'm on my way.



BRIDGE:

Bb      C              F        Am    Dm         C

Oh I'm leavin' on that midnight train tomorrow.

Bb    C                    F    Am   Dm   C

And I know just where I'm goin'

     Bb           C                  F          Am  Dm

I've packed up my troubles and I've thrown them all away.


 Dm
away
-5--|-5-----5-----5-----5--------------|
-6--|---6-----6-----6-----6------------|
-7--|-----7-----7-----7-----7----------|
-7--|----------------------------------| (Repeat 3 times)
-5--|--------------------------------5-|
----|-----------------------------8----|

       Bb                                           C

"cause this time little darlin', I'm comin' home to stay.

 F           Am

I'm stuck on you...................
Comments