Lionel Richie - How Long Chords & Tabs

 

How Long Chords & Tabs

Lionel Richie Chords & Tabs

Version: 1 Type: Tab 0 ratings
1 star 2 stars 3 stars 4 stars 5 stars
comments

How Long Tab

   
-------------------------------------------------------------------------------
			     How long-Lionnel Richie
-------------------------------------------------------------------------------
Tabbed by:Jeffkamungu
Email:geoffykom@yahoo.com

Tuning:standard

        Am                            Dmsus                G
e|-----------0---------0--|-------------0----------|-------------------------|
B|--------1--------1------|---------1-------3---3--|------------3------------|
G|-----2--------2---------|-----2------------------|---------0-----(0)-------|
D|------------------------|--0---------------------|------0------------------|
A|--0---------------------|------------------------|-------------------------|
E|------------------------|------------------------|--3----------------------|
[ Tab from: http://www.guitartabs.cc/tabs/l/lionel_richie/how_long_tab.html ]
      Am|G          Repeated twice for the intro from the beginning
e|---------------------------------------------------------------------------|
B|--1----0-------------------------------------------------------------------|
G|------------0--------------------------------------------------------------|
D|--2----0-------------------------------------------------------------------|
A|---------------------------------------------------------------------------|
E|---------------------------------------------------------------------------|
  Every time i see you.........       x3
         Am                  F                    G                Am9
e|--------------------|--------------------|-----------------|------0--------|
B|--------------1-----|----------1---------|----------3------|------------1--|
G|----------2---------|----------2---------|----------4------|---------4-----|
D|------2-------------|--------3-----------|--------5--------|----2----------|
A|--0-----------------|-----3--------------|-----5-----------|--0------------|
E|--------------------|--1-----------------|--3--------------|---------------|

        Am                    F                G                 A|
e|--------------------|--------------------|-------------|------0------------|
B|------------1-------|-----------1--------|----------3--|--------1--3---1---|
G|---------2----------|-----------2--------|----------4--|-------------0-----|
D|-----2--------------|---------3----------|--------5----|----2--------------|
A|--0-----------------|------3-------------|-----5-------|--0----------------|
E|--------------------|--1-----------------|--3----------|-------------------|

           Back to intro line for chorus(how long........)
e|---------|------------------------------------------------------------------|
B|--2---4--|------------------------------------------------------------------|
G|---------|------------------------------------------------------------------|
D|---------|------------------------------------------------------------------|
A|---------|------------------------------------------------------------------|
E|---------|------------------------------------------------------------------|
Comments