Linkin Park And Jay-z - Numb Encore Chords & Tabs

 

Numb Encore Chords & Tabs

Linkin Park And Jay-z Chords & Tabs

Version: 1 Type: Bass Tab 0 ratings
1 star 2 stars 3 stars 4 stars 5 stars
comments

Numb Encore Bass Tab

   
-----------------------------------------------------------------------------
			 Numb/Encore - Linkin Park & Jay-z  
-----------------------------------------------------------------------------

Tabbed By :yan_halen 
e-mail: ozprey_utd89@hotmail.com

Tuning: Standard (E A D G)

(Hold 2.5 seconds for every note)

Its damn easy.A little different from the original Linkin Park's NUMB.Thanx to my friend Hasyim for the aid.

INTRO
[0:11]
G|--------------------------------------|
D|--------------------------------------|
A|--------------------------------------|
E|2------------------5------------------| x2

Get em' Jay..

RIFF 1
[0:29]
G|--------------------------------------|
D|--------------------------------------|
A|----------5---------------------------|
E|2-------------------5---------0-------|x2
[ Tab from: http://www.guitartabs.cc/tabs/l/linkin_park_and_jay_z/numb_encore_btab.html ]
RIFF 2
[0:47]
G|--------------------------------------|
D|--------------------------------------|
A|------------------------------4-------|
E|2---------4---------5-----------------|x2

RIFF 3[CHORUS]
G|--------------------------------------|
D|--------------------------------------|
A|----------5---------------------------|
E|2-------------------5---------0-------|

G|--------------------------------------|
D|--------------------------------------|
A|----------5-------------------7-------|
E|2-------------------5-----------------|

What the hell are you waiting for..
[1:23]
G|--------------------------------------|
D|--------------------------------------|
A|--------------------------------------|
E|--------------------5---------0-------|

Now repeat RIFF 1 then RIFF 2

Play RIFF 3 on Chester's part

Then play RIFF 2 then repeat RIFF3 till end of song.
Comments