Linkin Park - With You Chords & Tabs

 

With You Chords & Tabs

Linkin Park Chords & Tabs

Version: 5 Type: Tab 0 ratings
1 star 2 stars 3 stars 4 stars 5 stars
comments

With You Tab

Title: With You
Tunning:Drop D
(6 String)

people are going to say that this is played on a 7 string,
but ive seen linkin park live, and it is played on a 6 string

Intro come in at 13 sec:
x|-------------------------------|x
x|-------------------------------|x
x|-------------------------------|x
x|-------------------------------|x  <---- 4 times
x|-2--2-2-3--3-2--2--2--2--3------|x
x|-2--2-2-3--3-2--2--2--2--x------|x
x|-2--2-2-3--3-2--2--2--2--3----|x
[ Tab from: http://www.guitartabs.cc/tabs/l/linkin_park/with_you_tab_ver_5.html ]
Verse:(listen to the song for the melody)
x|--------------------7-------------------------------|x
x|-----8--7--------------8--10--7---------------------|x
x|-----------7-4---7---------------7------------------|x
x|----------------------------------------------------|x     <----2 times
x|----------------------------------------------------|x
x|----------------------------------------------------|x
x|----------------------------------------------------|x


Chorus:
x|-------------------|x
x|-------------------|x
x|-------7----5------|x   
x|-5-----7----3----3-|x   <<----  x1 time
x|-5-----5----1----3-|x
x|-5---------------1-|x

Pre-Chorus:(pm)
x|-------------------------------|x
x|-------------------------------|x
x|-------------------------------|x
x|-------------------------------|x  <----8 times
x|-2--2-2-3--3-2--2--2--2--3*----|x
x|-2--2-2-3--3-2--2--2--2--x-----|x
x|-2--2-2-3--3-2--2--2--2--3*----|x

im pretty sure this is right, e-mail me for mistakes and all, aduladu@hotmail.com
Comments