Linkin Park - With You Chords & Tabs

 

With You Chords & Tabs

Linkin Park Chords & Tabs

Version: 4 Type: Tab 0 ratings
1 star 2 stars 3 stars 4 stars 5 stars
comments

With You Tab

Title: With You
Tunning:Standard
(7 String)

Intro:(pm)
x|-------------------------------|x
x|-------------------------------|x
x|-------------------------------|x
x|-------------------------------|x  <---- 4 times
x|-2--2-2-3--3-2--2--2--2--------|x
x|-2--2-2-3--3-2--2--2--2--------|x
x|-0--0-0-1--1-0--0--0--0--3*----|x
[ Tab from: http://www.guitartabs.cc/tabs/l/linkin_park/with_you_tab_ver_4.html ]
Verse:
x|----------------------------------------------------|x
x|-------7*----5*----5*------7*-----------------------|x
x|-7*-5*----7*----7*----5*-----7*---------------------|x
x|-------------------------7*-------------------------|x     <----2 times
x|----------------------------------------------------|x
x|----------------------------------------------------|x
x|----------------------------------------------------|x


Chorus:
x|-------------------|x
x|-------------------|x
x|-------7----5------|x   
x|-5-----7----3----3-|x   <<----  x1 time
x|-5-----5----1----3-|x
x|-3-----0---------1-|x

Pre-Chorus:(pm)
x|-------------------------------|x
x|-------------------------------|x
x|-------------------------------|x
x|-------------------------------|x  <----8 times
x|-2--2-2-3--3-2--2--2--2--------|x
x|-2--2-2-3--3-2--2--2--2--------|x
x|-0--0-0-1--1-0--0--0--0--3*----|x
Comments