Linkin Park - With You Remix Chords & Tabs

 

With You Remix Chords & Tabs

Linkin Park Chords & Tabs

Version: 1 Type: Bass Tab 0 ratings
1 star 2 stars 3 stars 4 stars 5 stars
comments

With You Remix Bass Tab

~~~~~~~~~~~~~~~~~~~~~~~~Linkin Park~~~~~~~~~~~~~~~~~~~~~~~~

~~~~~~~~~~~~~~~~~~~~~~~~~~Wth[ Tab from: http://www.guitartabs.cc/tabs/l/linkin_park/with_you_remix_btab.html ]
Chorus       x8                 x2
G|----------------------|-----------------|
D|----------------------|-----------------|
A|------------3---3--3--|-----------------|
E|-4---7--7-7---7--7----|-3~--9~--4~--6~--|

Verse 2     
G|---------------------|
D|---------------------|
A|---------------------|
E|-00---00---00---00---|

Chorus       x8                 x2
G|----------------------|-----------------|
D|----------------------|-----------------|
A|------------3---3--3--|-----------------|
E|-4---7--7-7---7--7----|-3~--9~--4~--6~--|

Verse 3      x2
G|---------------------|
D|---------------------|
A|---------------------|
E|-00---00---00---00---|

Chorus       x4
G|----------------|
D|----------------|
A|----------------|
E|-3~--9~--4~--6~-|

Outro--------No Bass
Comments