Linkin Park - With You Chords & Tabs

 

With You Chords & Tabs

Linkin Park Chords & Tabs

Version: 5 Type: Bass Tab 0 ratings
1 star 2 stars 3 stars 4 stars 5 stars
comments

With You Bass Tab

With you by Linkin Park
Standard Tuning
Bass Starts at (0.12)


(Intro)
G:--------------------
D:--------------------  X4
A:--------------------
E:-7-7-7-8-7-7---7-7-7

G:-------------------
D:-------------------
A:-------------------
E:-12----7----10----5

(0.50)
G:--------------------|-------------------
D:--------------------|-------------------  
A:--------------------|-------------------
E:-7-7-7-8-7-7---7-7-7|-12----7----10----5
[ Tab from: http://www.guitartabs.cc/tabs/l/linkin_park/with_you_btab_ver_5.html ]
(1.40
G:--------------------
D:--------------------  X8
A:--------------------
E:-7-7-7-8-7-7---7-7-7

(1.59)
G:-------------------
D:-------------------  X2
A:-------------------
E:-12----7----10----5

(2.31 Bridge)
G:-------------------
D:-------------------  X2
A:-------------------
E:-12----7----10----5

(Chorus)
G:-------------------
D:-------------------  X2
A:-------------------
E:-12----7----10----5

Thanks, Please rate after you learn it.
Tabbed by:
_TheBassist01_
Comments