Linkin Park - Until Its Gone Chords & Tabs

 

Until Its Gone Chords & Tabs

Linkin Park Chords & Tabs

Version: 1 Type: Tab 0 ratings
1 star 2 stars 3 stars 4 stars 5 stars
comments

Until Its Gone Tab

   
-------------------------------------------------------------------------------
                             SONG NAME - Band Name
-------------------------------------------------------------------------------
Tabbed by:hass
E-mail:

Tuning:DADGBE

e|--15----14-----12---14--12-------------------------------------------------|
B|----------------------------12---------------------------------------------|
G|---------------------------------------------------------------------------|
D|---------------------------------------------------------------------------|
A|---------------------------------------------------------------------------|
E|---------------------------------------------------------------------------|

e|--15----14-----12---14-----10-----12---------------------------------------|
B|---------------------------------------------------------------------------|
G|---------------------------------------------------------------------------|
D|---------------------------------------------------------------------------|
A|---------------------------------------------------------------------------|
E|---------------------------------------------------------------------------|

0:05

e|---------------------------------------------------------------------------|
B|---------------------------------------------------------------------------|
G|---------------------------------------------------------------------------|
D|--2--------9-------7-------------------------------------------------------|
A|--2--------7-------5-------------------------------------------------------|
E|--2--------7-------5-------------------------------------------------------|

e|---------------------------------------------------------------------------|
B|---------------------------------------------------------------------------|
G|---------------------------------------------------------------------------|
D|---------------------------------------------------------------------------|
A|---------------------------------------------------------------------------|
E|---------------------------------------------------------------------------|

00:26

e|---------------------------------------------------------------------------|
B|-----8----------8---------8----------8-------------------------------------|
G|--7--------7--------7----------7-------------------------------------------|
D|---------------------------------------------------------------------------|
A|---------------------------------------------------------------------------|
E|---------------------------------------------------------------------------|

00:59
e|---------------------------------------------------------------------------|
B|-----5-5-5-5-5-5-5-5----8-8-8-8-8-8-8-----10-10--10--10---12--12---12---12-|
G|---------------------------------------------------------------------------|
D|---------------------------------------------------------------------------|
A|---------------------------------------------------------------------------|
E|---------------------------------------------------------------------------|

1:09
e|----------------------------------------------------------------------------------|
B|--5*------------------------------------------------------------------------------|
G|--5*------------------------------------------------------------------------------|
D|-------2--------9-------7---------------------------------------------------------|
A|-------2--------7-------5---------------------------------------------------------|
E|-------2--------7-------5---------------------------------------------------------|

1:55
[ Tab from: http://www.guitartabs.cc/tabs/l/linkin_park/until_its_gone_tab.html ]
e|---------------------------------------------------------------------------|
B|---------------------------------------------------------------------------|
G|---------------------------------------------------------------------------|
D|--10--10--10--10----10--10--10--10---7-7-7-7-7-7-7-7-----------------------|
A|--10--10--10--10----10--10--10--10---7-7-7-7-7-7-7-7-----------------------|
E|--10--10--10--10----10--10--10--10---7-7-7-7-7-7-7-7-----------------------|

1:59

e|---------------------------------------------------------------------------|
B|---------------------------------------------------------------------------|
G|---------------------------------------------------------------------------|
D|--2--2--2--2----2--2--2--2--10--10--10--10----10--10--10-----9--9--9--9--9-|
A|--2--2--2--2----2--2--2--2--10--10--10--10----10--10--10-----9--9--9--9--9-|
E|--2--2--2--2----2--2--2--2--10--10--10--10----10--10--10-----9--9--9--9--9-|

e|---------------------------------------------------------------------------|
B|---------------------------------------------------------------------------|
G|---------------------------------------------------------------------------|
D|--12--12-12--12-12--12-12--12----------------------------------------------|
A|--12--12-12--12-12--12-12--12----------------------------------------------|
E|--12--12-12--12-12--12-12--12----------------------------------------------|

2:15 Solo

e|---------------------------------------------------------------------------|
B|-----------------------8--7--8----10-10-10-10-10-10-10-10------------------|
G|---9-9-9-9-9-9-9-9---------------------------------------------------------|
D|---------------------------------------------------------------------------|
A|---------------------------------------------------------------------------|
E|---------------------------------------------------------------------------|

e|---------------------------------------------------------------------------|
B|----8-7-----------------7-------------8-7-8-10-8-10-12---------------------|
G|---------9----7----9---------9---------------------------------------------|
D|---------------------------------------------------------------------------|
A|---------------------------------------------------------------------------|
E|---------------------------------------------------------------------------|

2:45

e|---------------------------------------------------------------------------|
B|---------------------------------------------------------------------------|
G|---------------------------------------------------------------------------|
D|--2--2--2--2----2--2--2--2--10--10--10--10----10--10--10-----9--9--9--9--9-|
A|--2--2--2--2----2--2--2--2--10--10--10--10----10--10--10-----9--9--9--9--9-|
E|--2--2--2--2----2--2--2--2--10--10--10--10----10--10--10-----9--9--9--9--9-|

e|---------------------------------------------------------------------------|
B|---------------------------------------------------------------------------|
G|---------------------------------------------------------------------------|
D|--12--12-12--12-12--12-12--12----------------------------------------------|
A|--12--12-12--12-12--12-12--12----------------------------------------------|
E|--12--12-12--12-12--12-12--12----------------------------------------------|

Just a rough guide of how its played.


************************************

| /   slide up
| \   slide down
| h   hammer-on
| p   pull-off
| ~   vibrato
| +   harmonic
| x   Mute note
| b   Bend
| pb  Pre-bend
| br  Bend release
| pbr Pre-bend release
| brb Bend release bend

************************************
Comments