Linkin Park - The Morning After Chords & Tabs

 

The Morning After Chords & Tabs

Linkin Park Chords & Tabs

Version: 1 Type: Tab 0 ratings
1 star 2 stars 3 stars 4 stars 5 stars
comments

The Morning After Tab

   
linkin park - morning after
brady (bstaind311@hotmail.com)

Linkin Park- The Morning After
Unreleased live Acoustic
1/2 step down (eb-gb-bb-db-ab-eb)
tabbed by brady, bstaind311@hotmail.com
note-x indicates palm mute
         Verse
|-----------------------
|-----------------------
|-3-x3-3-x-3-3--1-4-4-1-
|-4-x4-4-x-4-4--2-5-5-2-
|-4-x4-4-x-4-4--2-5-5-2-
|-2-x2-2-x-2-2--0-3-3-0-
[ Tab from: http://www.guitartabs.cc/tabs/l/linkin_park/the_morning_after_tab.html ]
         Chorus
|---------------------------------------------
|---------------------------------------------
|-8-x-8-8-8--4-x-4-4-4--3-x3-3-x-3-3--1-4-4-1-
|-9-x-9-9-9--5-x-5-5-5--4-x4-4-x-4-4--2-5-5-2-
|-9-x-9-9-9--5-x-5-5-5--4-x4-4-x-4-4--2-5-5-2-
|-7-x-7-7-7--3-x-3-3-3--2-x2-2-x-2-2--0-3-3-0-

          After Chorus

|--------------------------------------------
|--------------------------------------------
|-8-x-8-8-8--4-x-4-4-4--7-x-7-7-7--6-x-6-6-6-
|-9-x-9-9-9--5-x-5-5-5--7-x-7-7-7--7-x-7-7-7-
|-9-x-9-9-9--5-x-5-5-5--5-x-5-5-5--7-x-7-7-7-
|-7-x-7-7-7--3-x-3-3-3-------------5-x-5-5-5-
Comments