Linkin Park - Step Up Chords & Tabs

 

Step Up Chords & Tabs

Linkin Park Chords & Tabs

Version: 6 Type: Tab 0 ratings
1 star 2 stars 3 stars 4 stars 5 stars
comments

Step Up Tab

   
-----------------------------------------------------------------------------
			     Step Up - Linkin Park
-----------------------------------------------------------------------------
Tabbed by: Shifty
Email: av_shifty_lp@hotmail.com

Tuning: Tuned down 1/2 step

Riff A (Guitar 1)
eb---------------------------------------------------------|
Bb---------------------------------------------------------|
Gb---------------------------------------------------------|
Db--8-10-11-10--8-10-11-10--8-10-11-10--8-10-11-10---------|
Ab---------------------------------------------------------|
Eb---------------------------------------------------------|

Riff B (Guitar 2)
eb---------------------------------------------------------|
Bb---------------------------------------------------------|
Gb---------------------------------------------------------|
Db--3-3---6---5---4---3---3-3---6---5---4---3--------------|
Ab---------------------------------------------------------|
Eb---------------------------------------------------------|
[ Tab from: http://www.guitartabs.cc/tabs/l/linkin_park/step_up_tab_ver_6.html ]
Verse
eb---------------------------------------------------------|
Bb---------------------------------------------------------|
Gb---------------------------------------------------------|
Db--3-3-----------4-------3-3-----------4------------------|
Ab--------4---6-------6---------4---6-------6--------------|
Eb---------------------------------------------------------|

Bridge
eb--6-----------6-----------8------------8-----------------|
Bb-----6-----6-----6--7--6-----6-----6------6--7--6--------|
Gb--6-----8-----6-----------5-----8------5-----------------|
Db---------------------------------------------------------|
Ab---------------------------------------------------------|
Eb---------------------------------------------------------|

(continued)
eb--11-------------11-------------9-----------8------------|
Bb-------------------------9---------6-----6-----6--7--6---|
Gb---8--11--10--11--8--10-----11--6-----8-----5------------|
Db---------------------------------------------------------|
Ab---------------------------------------------------------|
Eb---------------------------------------------------------|


Riff A, B
Verse
Riff A, B
Verse
Verse, Riff A
Riff A, B
Bridge, Riff B
Riff A, Riff B
Bridge
Comments