Linkin Park - Step Up Chords & Tabs

 

Step Up Chords & Tabs

Linkin Park Chords & Tabs

Version: 5 Type: Tab 0 ratings
1 star 2 stars 3 stars 4 stars 5 stars
comments

Step Up Tab

   
Step Up
Tuning: Dropped D one half step down
C# G# C# F# A# D#

Intro:
x|-5-5-5-3-5---1-------1-0-------------------------------------------------|x
x|------------------3-3-3--------0h1/5---0h1/6\5---------------------------|x
x|-------------------------------------------------------------------------|x
x|-------------------------------------------------------------------------|x
x|-------------------------------------------------------------------------|x
x|-------------------------------------------------------------------------|x
                                     
Verse
x|--------------------------------|x
x|--------------------------------|x
x|-0h1/5---0h1/6\5----------------|x
x|--------------------------------|x
x|--------------------------------|x
x|--------------------------------|x
[ Tab from: http://www.guitartabs.cc/tabs/l/linkin_park/step_up_tab_ver_5.html ]
Chorus x2
x|----------------------------------------------------------------------|x
x|----------------------------------------------------------------------|x
x|------10109--7777------------10109------------------------------------|x
x|-7777-10109--7777-5555--7777-10109--8-8-8-8---10101010----------------|x
x|-7777-8-8-7--5555-5555--7777-8-8-7--8-8-8-8---10101010----------------|x
x|-7777-------------5555--7777--------8-8-8-8---10101010----------------|x

Bridge
x|----|----------------------------------|----------------------------------|x
x|----|----------------------------------|----------------------------------|x
x|----|-------14----12-------14----12----|-------14----12-------------------|x
x|-14-|----14-------------14----------14-|----14-------------14-------------|x
x|----|-12-------12----13-------13-------|-12-------12----13----------------|x
x|----|----------------------------------|----------------------------------|x

Pre-Chorus
x|-----------------------------|---------------------------------------------|x
x|-----------------------------|---------------------------------------------|x
x|-2222-2--2222-2--3333-3333-3-|-2222-2--2222-2--3333-5555-5-----------------|x
x|-2222-2--2222-2--3333-3333-3-|-2222-2--2222-2--3333-5555-5-----------------|x
x|-0000-0--0000-0--1111-1111-1-|-0000-0--0000-0--1111-3333-3-----------------|x
x|-----------------------------|---------------------------------------------|x

End:
x|--------|x
x|--------|x
x|-0h1/5--|x
x|--------|x
x|--------|x
x|--------|x
Comments