Linkin Park - Somewhere I Belong Chords & Tabs

 

Somewhere I Belong Chords & Tabs

Linkin Park Chords & Tabs

Version: 9 Type: Tab 0 ratings
1 star 2 stars 3 stars 4 stars 5 stars
comments

Somewhere I Belong Tab

Linkin Park - Somewhere I belong
Tuning - Drop C#/Db
Tabbed by Andrew C

Verse:

Guitar1
e|--------------|
B|-7-7--7-10--7-|
G|--------------|
D|--------------|
A|--------------|
D|--------------|

Guitar2
e|----------------|----------------|----------------|----------------|
B|----------------|----------------|----------------|----------------|
G|-7--------------|----------------|----------------|----------------|
D|-7--------------|-9--------------|-7--------------|-5--------------|
A|-5--------------|-9--------------|-7--------------|-5--------------|
D|----------------|-9--------------|-7--------------|-5--------------|


Fill Before Chorus:
e|--------------|
B|--------------|
G|-44444444-----|
D|-xxxxxxxx-----|
A|-22222222-----|
D|--------------|
  Palm-Muted


Chorus:

Guitar1
e|----------------|----------------|----------------|----------------|
B|----------------|----------------|----------------|----------------|
G|-8--------------|-9--------------|-11-(6)---------|-9-(4)----------|
D|-x--------------|-x--------------|-x--(x)---------|-x-(x)----------|
A|-6--------------|-7--------------|-9--(4)---------|-7-(2)----------|
D|----------------|----------------|----------------|----------------|

Guitar2
e|----------------|----------------|----------------|----------------|
B|----------------|----------------|----------------|----------------|
G|----------------|-7--------------|----------------|----------------|
D|-9--------------|-7--------------|-5--------------|-2--------------|
A|-9--------------|-5--------------|-5--------------|-2--------------|
D|-9--------------|----------------|-5--------------|-2--------------|

play the ()'s every second time you play the chorus


Bridge:
[ Tab from: http://www.guitartabs.cc/tabs/l/linkin_park/somewhere_i_belong_tab_ver_9.html ]
e|----------------|----------------|---------------|----------------|
B|----------------|----------------|---------------|----------------|
G|--------11-11---|--------11-11---|--------11-11--|----------------|
D|-9-9----x--x----|-5-5----x--x----|-7-7----x--x---|-2-2----0h2-----|
A|-9-9----9--9----|-5-5----9--9----|-7-7----9--9---|-2-2--------4---|
D|-9-9------------|-5-5------------|-7-7-----------|-2-2------------|

e|----------------|----------------|---------------|----------------|
B|----------------|----------------|---------------|----------------|
G|--------11-11---|--------11-11---|--------11-11--|----------------|
D|-9-9----x--x----|-5-5----x--x----|-7-7----x--x---|-2-2----0h2-----|
A|-9-9----9--9----|-5-5----9--9----|-7-7----9--9---|-2-2--------4---|
D|-9-9------------|-5-5------------|-7-7-----------|-2-2------------|

e|----------------|----------------|---------------|----------------|
B|----------------|----------------|---------------|----------------|
G|--------11-11---|--------14-14---|--------11-11--|----------------|
D|-9-9----x--x----|-5-5----x--x----|-7-7----x--x---|-2-2----0h2-----|
A|-9-9----9--9----|-5-5----12-12---|-7-7----9--9---|-2-2--------4---|
D|-9-9------------|-5-5------------|-7-7-----------|-2-2------------|

e|----------------|----------------|---------------|----------------|
B|----------------|----------------|---------------|----------------|
G|--------11-11---|--------11-11---|--------11-11--|----------------|
D|-9-9----x--x----|-5-5----x--x----|-7-7----x--x---|-2-2----0h2-----|
A|-9-9----9--9----|-5-5----9--9----|-7-7----9--9---|-2-2--------4---|
D|-9-9------------|-5-5------------|-7-7-----------|-2-2------------|

Outro:

Guitar1
e|----------------|----------------|
B|----------------|-12-12-12-12----|
G|----------------|-11-11-11-11----|
D|-9-9-9-9-9-9----|-9--9--9--9-----|
A|-9-9-9-9-9-9----|----------------|
D|-9-9-9-9-9-9----|----------------|
                    Palm-Muted   

Guitar2
e|----------------|----------------|
B|----------------|----------------|
G|----------------|----------------|
D|-9-9-9-9-9-9----|-9--9--9--9-----|
A|-9-9-9-9-9-9----|-9--9--9--9-----|
D|-9-9-9-9-9-9----|-9--9--9--9-----|
                    Palm-Muted
Comments