Linkin Park - Somewhere I Belong Chords & Tabs

 

Somewhere I Belong Chords & Tabs

Linkin Park Chords & Tabs

Version: 3 Type: Tab 0 ratings
1 star 2 stars 3 stars 4 stars 5 stars
comments

Somewhere I Belong Tab

Linkin Park
"Somewhere I Belong"
Album: Meteora (2003)
Tabbed by: Rifat H. Jabbar

Regular tuning (eBGDAE)

Intro
e|------------|      |---------------------------------------------------------------------|
B|---------3--|      |---------------------------------------------------------------------|
G|-4-4-4-4--4-| x 8  |---------------------------------------------------------------------| 
D|------------|      |-6-6-6-6-6-6-6-6--2-2-2-2-2-2-2-2--3-3-3-3-3-3-3-3--1-1-1-1-1-1-1-1--|  x 2
A|------------|      |-6-6-6-6-6-6-6-6--2-2-2-2-2-2-2-2--3-3-3-3-3-3-3-3--1-1-1-1-1-1-1-1--|
E|------------|      |-6-6-6-6-6-6-6-6--0-0-0-0-0-0-0-0--3-3-3-3-3-3-3-3--1-1-1-1-1-1-1-1--|

Verse - same as intro
[ Tab from: http://www.guitartabs.cc/tabs/l/linkin_park/somewhere_i_belong_tab_ver_3.html ]
Chorus
e|---------------------------------------------------------------------|
B|---------------------------------------------------------------------|
G|---------------------------------------------------------------------| 
D|-6-6-6-6-6-6-6-6--2-2-2-2-2-2-2-2--3-3-3-3-3-3-3-3--1-1-1-1-1-1-1-1--|  x 2
A|-6-6-6-6-6-6-6-6--2-2-2-2-2-2-2-2--3-3-3-3-3-3-3-3--1-1-1-1-1-1-1-1--|
E|-6-6-6-6-6-6-6-6--0-0-0-0-0-0-0-0--3-3-3-3-3-3-3-3--1-1-1-1-1-1-1-1--|

Bridge

e|--------------------------------------------|
B|--------------------------------------------|
G|--------------------------------------------| 
D|-2-2-4444-2-2-4444-2-2-4444-2-2-4-----------|  x 2
A|-2-2-2222-2-2-2222-2-2-2222-2-2---2-0-0-2-4-|
E|-0-0------0-0------0-0------0-0-------------|

e|--------------------------------------------|
B|--------------------------------------------|
G|--------------------------------------------| 
D|-2-2-5555-2-2-5555-2-2-5555-2-2-5-----------|  x 2
A|-2-2-3333-2-2-3333-2-2-3333-2-2---3-0-0-3-5-|
E|-0-0------0-0------0-0------0-0-------------|

ORDER:

Intro
Verse
Chorus
Verse
Chorus
Bridge
Chorus
Comments