Linkin Park - Somewhere I Belong Chords & Tabs

 

Somewhere I Belong Chords & Tabs

Linkin Park Chords & Tabs

Version: 2 Type: Bass Tab 0 ratings
1 star 2 stars 3 stars 4 stars 5 stars
comments

Somewhere I Belong Bass Tab

   
--------------------------------------------------------------------------------
                             Somewhere I Belong - Linkin Park
--------------------------------------------------------------------------------

Artist: Linkin Park
Song Title: Somewhere I Belong
Off The albulm: Meteora(Track 3)
Tabbed by: Zero is great man.
Tuning: Standard, EADG

Verse:
G|------------|
D|------------|
A|----4-------|
E|-6-----4--2-|
[ Tab from: http://www.guitartabs.cc/tabs/l/linkin_park/somewhere_i_belong_btab_ver_2.html ]
Chorus: "I wanna heal, I wanna feel, what I thought..."
G|------------------------------------|
D|------------------------------------|
A|----------4-4-4-4-----------6-6-6-6-|
E|-6-6-6-6-----------2-2-2-2----------|

Bridge:"I will never be..."
G|------------------------------------|
D|------------------------------------|
A|----------------------------6-6-6-6-|
E|-6-6-6-6--2-2-2-2--4-4-4-4----------|

Outro:
G|---------|
D|---------|
A|---------|
E|-6-6-6-6-|
                    
================================================================================
Comments