Linkin Park - Some Where I Belong Chords & Tabs

 

Some Where I Belong Chords & Tabs

Linkin Park Chords & Tabs

Version: 1 Type: Tab 1 rating
1 star 2 stars 3 stars 4 stars 5 stars
comments

Some Where I Belong Tab

Song:Some Where I Belong
Album:Meteora
Band:Linkin Park
 



Intro (no disortion) (Guitar 1)
Eb|-----5---|-----5---|
Bb|-5-7---7-|-5-7---7-|
Gb|---------|---------|
Db|---------|---------|
Ab|---------|---------|
Db|---------|---------|

   Chorus (Guitar 1)
Eb|---------------------|--------------------------|
Bb|---------------------|--------------------------|
Gb|-8-8-8-8-8-9-9-9-9-9-|-11-11-11-11-11-9-9-9-9-9-|
Db|-X-X-X-X-X-X-X-X-X-X-|-X--X--X--X--X--X-X-X-X-X-|
Ab|-6-6-6-6-6-7-7-7-7-7-|-9--9--9--9--9--7-7-7-7-7-|
Db|---------------------|--------------------------|

Eb|---------------------|---------------------|
Bb|---------------------|---------------------|
Gb|-8-8-8-8-8-9-9-9-9-9-|-6-6-6-6-6-4-4-4-4-4-|
Db|-X-X-X-X-X-X-X-X-X-X-|-X-X-X-X-X-X-X-X-X-X-|
Ab|-6-6-6-6-6-7-7-7-7-7-|-4-4-4-4-4-2-2-2-2-2-|
Db|---------------------|---------------------|

  Chorus (Guitar 2)
Eb|---------------------|---------------------|
Bb|---------------------|---------------------|
Gb|---------------------|---------------------|
Db|-4-4-4-4-4-0-0-0-0-0-|-5-5-5-5-5-2-2-2-2-2-|
Ab|-2-2-2-2-2-0-0-0-0-0-|-5-5-5-5-5-2-2-2-2-2-|
Db|-4-4-4-4-4-0-0-0-0-0-|-5-5-5-5-5-2-2-2-2-2-|
[ Tab from: http://www.guitartabs.cc/tabs/l/linkin_park/some_where_i_belong_tab.html ]
Eb|---------------------|---------------------|
Bb|---------------------|---------------------|
Gb|---------------------|---------------------|
Db|-4-4-4-4-4-0-0-0-0-0-|-7-7-7-7-7-2-2-2-2-2-|
Ab|-2-2-2-2-2-0-0-0-0-0-|-7-7-7-7-7-2-2-2-2-2-|
Db|-4-4-4-4-4-0-0-0-0-0-|-7-7-7-7-7-2-2-2-2-2-|

   Bridge (Guitar 1 & 2)
Eb|-------------------------|------------------------|
Bb|-------------------------|------------------------|
Gb|-------11-11-------11-11-|------11-11-------6/7\6-|
Db|-9--9--X--X---5--5-X--X--|-7--7-X--X---2--2-X/X\X-|
Ab|-9--9--9--9---5--5-9--9--|-7--7-9--9---2--2-4/5\4-|
Db|-9--9---------5--5-------|-7--7--------2--2-------|

Eb|-------------------------|------------------------|
Bb|-------------------------|------------------------|
Gb|-------11-11-------11-11-|------11-11-------6/7\6-|
Db|-9--9--X--X---5--5-X--X--|-7--7-X--X---2--2-X/X\X-|
Ab|-9--9--9--9---5--5-9--9--|-7--7-9--9---2--2-4/5\4-|
Db|-9--9---------5--5-------|-7--7--------2--2-------|

Eb|-------------------------|------------------------|
Bb|-------------------------|------------------------|
Gb|-------11-11-------14-14-|------11-11-------6/7\6-|
Db|-9--9--X--X---5--5-X--X--|-7--7-X--X---2--2-X/X\X-|
Ab|-9--9--9--9---5--5-12-12-|-7--7-9--9---2--2-4/5\4-|
Db|-9--9---------5--5-------|-7--7--------2--2-------|

Eb|-------------------------|------------------------|
Bb|-------------------------|------------------------|
Gb|-------11-11-------11-11-|------11-11-------6/7\6-|
Db|-9--9--X--X---5--5-X--X--|-7--7-X--X---2--2-X/X\X-|
Ab|-9--9--9--9---5--5-9--9--|-7--7-9--9---2--2-4/5\4-|
Db|-9--9---------5--5-------|-7--7--------2--2-------|
Comments