Linkin Park - Runaway Chords & Tabs

 

Runaway Chords & Tabs

Linkin Park Chords & Tabs

Version: 3 Type: Tab 0 ratings
1 star 2 stars 3 stars 4 stars 5 stars
comments

Runaway Tab

   
Artist: Linkin Park
Song: Runaway
Album: Hybrid Theory
Written by: Brad Delson
Tabbed by: Drew Montgomery
E-mail: royalfate@aol.com
Tuning: Drop-D and down 1/2 step(Db-Ab-Db-Gb-Bb-Eb)
Key: / = slide-up

Here's the correct way to play Runaway from Linkin Park.
There are only two simple riffs in the whole song, so
it's not very difficult. God bless and Rock on!!!

Intro/Chorus(distortion)

Eb|--------------------------------------------------|
Bb|--------------------------------------------------|
Gb|--------------------------------------------------|
Db|--5-5-5/8-8-8-8-8--6-6-6/8-8-8-8-8----------------|
Ab|--3-3-3/6-6-6-6-6--6-6-6/8-8-8-8-8----------------|
Db|-------------------6-6-6/8-8-8-8-8----------------|

Bridge(distortion)
[ Tab from: http://www.guitartabs.cc/tabs/l/linkin_park/runaway_tab_ver_3.html ]
Eb|--------------------------------------------------|
Bb|--------------------------------------------------|
Gb|--------------------------------------------------|
Db|--0-0-0-1-0-0-0-0-1--0-0-0-1-0-0-0-0-1------------|
Ab|--0-0-0-1-0-0-0-0-1--0-0-0-1-0-0-0-0-1------------|
Db|--0-0-0-1-0-0-0-0-1--0-0-0-1-0-0-0-0-1------------|
   pm...............    ...............

Lyrics:

1st Verse

Graffiti decorations
Underneath a sky of dust
A constant wave of tension
On top of broken trust
The lessons that you taught me
I learned were never true

Pre-Chorus

Now I find myself in question
[They point the finger at me again]
Guilty by association
[You point the finger at me again]

Chorus

I wanna run away
Never say good-bye
I wanna know the truth
Instead of wondering why
I wanna know the answers
No more lies
I wanna shut the door
And open up my mind

2nd Verse

Paper bags and angry voices
Under a sky of dust
Another wave of tension
Has more than filled me up
All my talk of taking action
These words were never true

Pre-Chorus

Chorus

Bridge

I'm gonna runaway and never say good-bye
[Gonna runaway, gonna runaway]
I'm gonna runaway and never wonder why
[Gonna runaway, gonna runaway]
I'm gonna runaway and open up my mind
[Gonna runaway, gonna runaway]

Chorus

Alrighty, there you go.
Comments