Linkin Park - Runaway Chords & Tabs

 

Runaway Chords & Tabs

Linkin Park Chords & Tabs

Version: 1 Type: Tab 0 ratings
1 star 2 stars 3 stars 4 stars 5 stars
comments

Runaway Tab

artist:linkin park
song:runaway

Intro: (heavy distortion)
--------------------------------------------------------------------
--------------------------------------------------------------------
--8---10------------------------------------------------------------
--8---10--10---12---------------------------------------------------
--6----8--10---10---------------------------------------------------
-----------8---10---------------------------------------------------
repeat 2 times

Chorus:
[ Tab from: http://www.guitartabs.cc/tabs/l/linkin_park/runaway_tab.html ]
--------------------------------------------------------------------
--------------------------------------------------------------------
--4-4---7-7-7-------------------------------------------------------
--4-4---7-7-7---5-5---7-7-7-----------------------------------------
--2-2---5-5-5---5-5---7-7-7-----------------------------------------
--2-2---5-5-5---3-3---5-5-5-----------------------------------------


--------------------------------------------------------------------
--------------------------------------------------------------------
--------------------------------------------------------------------
-0-0--1--0-0--1-----------------------------------------------------
-0-0--1--0-0--1-----------------------------------------------------
-0-0--1--0-0--1-----------------------------------------------------
(...gonna' runaway, gonna' runaway...)

very easy song...Enjoy!

Comments