Linkin Park - Pushing Me Away Chords & Tabs

 

Pushing Me Away Chords & Tabs

Linkin Park Chords & Tabs

Version: 9 Type: Tab 0 ratings
1 star 2 stars 3 stars 4 stars 5 stars
comments

Pushing Me Away Tab

   
-----------------------------------------------------------------------------
		        Pushing Me Away - Linkin Park
-----------------------------------------------------------------------------
Tabbed by: Shifty
Email: av_shifty_lp@hotmail.com

Tuning: Drop Db
Db Ab Db Gb Bb Eb

Intro: all natural harmonics

e-12---------------------12---------------------------------------|
b--------12----------7---------12--------12---------------7-------|
g-----7-----------5-------------------7----------12------------7--|
d----------------------------------7------------------7-----------|
a--------------7------------------------------7-------------------|
d-----------------------------------------------------------------|


gtr.1
e-----------------------------------------------------------------|
b-----------------------------------------------------------------|
g-----------------------------------------------------------------|
d-2---2--2-2--2--2--2--2/10----10--10-10---10--10--10/5-----------|
a-2---2--2-2--2--2--2--2/10----10--10-10---10--10--10/5-----------|
d-2---2--2-2--2--2--2--2/10----10--10-10---10--10--10/5-----------|
fig.1

e-----------------------------------------------------------------|
b-----------------------------------------------------------------|
g-----------------------------------------------------------------|
d-5----5--5-5--5--5--5--7-7---7---7-7-9--9--9--0--0-0-------------|
a-5----5--5-5--5--5--5--7-7---7---7-7-9--9--9--0--0-0-------------|
d-5----5--5-5--5--5--5--7-7---7---7-7-9--9--9--0--0-0-------------|
fig.1 cont.


Gtr 2

e------------------------------------------------------------------|
b-7-7-7-7-7-7-7-7-7-7-7-8-8-8-8-8-8-8-8-8-81212121212121212121212--|
g-x-x-x-x-x-x-x-x-x-x-x-x-x-x-x-x-x-x-x-x-x-x-x-x-x-x-x-x-x-x-x-x--|
d-4-4-4-4-4-4-4-4-4-4-4-5-5-5-5-5-5-5-5-5-5-9-9-9-9-9-9-9-9-9-9-9--|
a------------------------------------------------------------------|
d------------------------------------------------------------------|
[ Tab from: http://www.guitartabs.cc/tabs/l/linkin_park/pushing_me_away_tab_ver_9.html ]
fig.1A cont. 2x


gtr.1
e--------------------------------|-------------------------------|
b--------------------------------|-------------------------------|
g--------------------------------|-------------------------------|
d-7----7--7-9---9--9/12---12-12--|-------------------------------|
a-7----7--7-9---9--9/12---12-12--|-------------------------------|
d-7----7--7-9---9--9/12---12-12--|-------------------------------|
before, we're all out of time;

e----------------------------------------------------------------|
b----------------------------------------------------------------|
g----------------------------------------------------------------|
d--12--12--12-12---12--12--12---12-12---12--12--12-12--12--12--7-|
a--10--10--10-10---10--10--10---12-12---12--12--12-12--12--12--7-|
d--10--10--10-10---10--10--10---12-12---12--12--12-12--12--12--7-|


e----------------------------------------------------------------|
b----------------------------------------------------------------|
g----------------------------------------------------------------|
d-7---7---7-7--7--7--7--7-4--4---4--5-5--5--5--5/9--9-12---------|
a-7---7---7-7--7--7--7--7-4--4---4--5-5--5--5--5/9--9-10---------|
d-7---7---7-7--7--7--7--7-4--4---4--5-5--5--5--5/9--9-10---------|


e----------------------------------------------------------------|
b----------------------------------------------------------------|
g----------------------------------------------------------------|
d-12--12---12-12--12--12--12--12-12---12---12--12-12--12--12--12-|
a-10--10---10-10--10--10--10--10-12---12---12--12-12--12--12--12-|
d-10--10---10-10--10--10--10--10-12---12---12--12-12--12--12--12-|


e----------------------------------------------------------------|
b----------------------------------------------------------------|
g----------------------------------------------------------------|
d-7---7--7-7---7--7--7--7-7--4---4--5-5---5--5--x-x--------------|
a-7---7--7-7---7--7--7--7-7--4---4--5-5---5--5--x-x--------------|
d-7---7--7-7---7--7--7--7-7--4---4--5-5---5--5--x-x--------------|
Comments