Linkin Park - Pushing Me Away Chords & Tabs

 

Pushing Me Away Chords & Tabs

Linkin Park Chords & Tabs

Version: 8 Type: Tab 0 ratings
1 star 2 stars 3 stars 4 stars 5 stars
comments

Pushing Me Away Tab

LINKIN PARK - Pushing Me Away
TUNING: Drop D, down 1/2 step
**2 GUITARS**

Intro/Verse (all harmonics)
Eb|12------------12----------------------------------------------------------
Bb|-----12-----7----12-----12--------7---------------------------------------
Gb|---7------5-----------7------12-----7-------------------------------------
Db|--------------------7-----------7-----------------------------------------
Ab|--------7------------------7----------------------------------------------
Db|--------------------------------------------------------------------------

Chorus (Guitar 1, normal distortion)
Eb|--------------------------------------------------------------------------
Bb|--------------------------------------------------------------------------
Gb|-----------------|5-5-5-5-5-5-5-5-5|-----------------|-----------------|--
Db|4-4-4-4-4-4-4-4-4|3-3-3-3-3-3-3-3-3|9-9-9-9-9-9-9-9-9|9-9-9-9-9-9-9-0-0|--
Ab|2-2-2-2-2-2-2-2-2|3-3-3-3-3-3-3-3-3|5-5-5-5-5-5-5-5-5|7-7-7-7-9-9-9-0-0|--
Db|2-2-2-2-2-2-2-2-2|-----------------|5-5-5-5-5-5-5-5-5|7-7-7-7-9-9-9-0-0|--

Chorus (Guitar 2, normal distortion)
Eb|--------------------------------------------------------------------------
Bb|--------------------------------------------------------------------------
Gb|11-11-11-11-11-11-11-11-11|12-12-12-12-12-12-12-19-19|--------------------
Db|--------------------------------------------------------------------------
Ab|9--9--9--9--9--9--9--9--9-|10-10-10-10-10-10-10-17-17|--------------------
Db|--------------------------------------------------------------------------
[ Tab from: http://www.guitartabs.cc/tabs/l/linkin_park/pushing_me_away_tab_ver_8.html ]
Eb|--------------------------------------------------------------------------
Bb|--------------------------------------------------------------------------
Gb|16-16-16-16-16-16-16-16-16|16-16-16-16-16-16-16-16-16|--------------------
Db|--------------------------------------------------------------------------
Ab|14-14-14-14-14-14-14-14-14|14-14-14-14-14-14-14-14-14|--------------------
Db|--------------------------------------------------------------------------

Repeat Verse (play four times)
Repeat Chorus (play twice)
Repeat Verse (play four times)
Repeat Chorus (play twice)

Bridge (both guitars)
Eb|--------------------------------------------------------------------------
Bb|--------------------------------------------------------------------------
Gb|5-5-5-5-5-5-5-5-5|7-7-7-7-7-7-7-7-7|-----------------|-----------------|--
Db|3-3-3-3-3-3-3-3-3|5-5-5-5-5-5-5-5-5|7-7-7-7-7-7-7-7-7|4-4-4-4-5-5-5-9-9|--
Ab|3-3-3-3-3-3-3-3-3|5-5-5-5-5-5-5-5-5|7-7-7-7-7-7-7-7-7|4-4-4-4-5-5-5-9-9|--
Db|-----------------|-----------------|7-7-7-7-7-7-7-7-7|4-4-4-4-5-5-5-9-9|--

Eb|--------------------------------------------------------------------------
Bb|--------------------------------------------------------------------------
Gb|5-5-5-5-5-5-5-5-5|7-7-7-7-7-7-7-7-7|-----------------|-----------------|--
Db|3-3-3-3-3-3-3-3-3|5-5-5-5-5-5-5-5-5|7-7-7-7-7-7-7-7-7|4-4-4-4-5-5-5----|--
Ab|3-3-3-3-3-3-3-3-3|5-5-5-5-5-5-5-5-5|7-7-7-7-7-7-7-7-7|4-4-4-4-5-5-5----|--
Db|-----------------|-----------------|7-7-7-7-7-7-7-7-7|4-4-4-4-5-5-5-0-0|--
                                                                       p.m.

Repeat Chorus (play four times, delete very last 2 bars in Guitar 1,
delete last bar in Guitar 2)
Comments