Linkin Park - Pushing Me Away Chords & Tabs

 

Pushing Me Away Chords & Tabs

Linkin Park Chords & Tabs

Version: 7 Type: Tab 0 ratings
1 star 2 stars 3 stars 4 stars 5 stars
comments

Pushing Me Away Tab

LINKIN PARK-PUSHING ME AWAY

INTRO/VERSE
E-------------------------------------------------------
B---------------18-17-------------------------17--------
G---19-17-------------19-------17----------------17-----
D---------19-------------19-17----19-------17-----------
A------------17----------------------17-19--------------
D-------------------------------------------------------
[ Tab from: http://www.guitartabs.cc/tabs/l/linkin_park/pushing_me_away_tab_ver_7.html ]
CHORUS
E------------------------------------
B------------------------------------
G----------333333-5-222222222222-----
D---000000-333333-5-222222222222-----
A---000000-111111-3-000000000000-----
D---000000---------------------------

BRIDGE
E----------------------------
B----------------------------
G---444444-666666-333333-----
D---444444-666666-333333-----
A---222222-444444-111111-----
D----------------------------
Comments