Linkin Park - Pushing Me Away Chords & Tabs

 

Pushing Me Away Chords & Tabs

Linkin Park Chords & Tabs

Version: 4 Type: Tab 0 ratings
1 star 2 stars 3 stars 4 stars 5 stars
comments

Pushing Me Away Tab

   
Artist: Linkin Park
Song: Pushing Me Away
Album: Hybrid Theory
Written by: Brad Delson
Tabbed by: Drew Montgomery
E-mail: royalfate@aol.com
Tuning: Drop-D and down 1/2 step(Db-Ab-Db-Gb-Bb-Eb)
Key: * = harmonic, x = palm mute

This song consists of two guitars, both of the same
tuning, and is very complex. It will take time to
get the hang of it, so be patient. God bless and
ROCK ON!!!

Intro/Verse(only guitar 1)(clean)

Eb|--12*-----------------12*-------------------------------|
Bb|---------12*-------7*-----12*-------12*-----------7*----|
Gb|------7*--------5*---------------7*--------12*-------7*-|
Db|------------------------------7*---------------7*-------|
Ab|-------------7*-------------------------7*--------------|
Db|--------------------------------------------------------|

Chorus(guitar 1)(distortion)

Eb|--------------------------------------------------------|
Bb|--------------------------------------------------------|
Gb|--11-11-11-11-11-11-11-11-12-12-12-12-12-12-12-12/19-19-|
Db|--x--x--x--x--x--x--x--x--x--x--x--x--x--x--x--x--x--x--|
Ab|--9--9--9--9--9--9--9--9--10-10-10-10-10-10-10-10/17-17-|
Db|--------------------------------------------------------|

Eb|--------------------------------------------------------|
Bb|--------------------------------------------------------|
Gb|--19-16-16-16-16-16-16-16-16-16-16----------------------|
Db|--x--x--x--x--x--x--x--x--x--x--x-----------------------|
Ab|--17-14-14-14-14-14-14-14-14-14-14----------------------|
Db|--------------------------------------------------------|

Chorus(guitar 2)(distortion)

Eb|--------------------------------------------------------|
Bb|--------------------------------------------------------|
Gb|--------------5-5-5-5-5-5-------------------------------|
Db|--2-2-2-2-2-2-3-3-3-3-3-3-5-5-5-5-5-5-7-7-7-7-9-9-9-9-9-|
Ab|--2-2-2-2-2-2-------------5-5-5-5-5-5-7-7-7-7-9-9-9-9-9-|
Db|--2-2-2-2-2-2-------------5-5-5-5-5-5-7-7-7-7-9-9-9-9-9-|

Bridge(guitar 1)(distortion)

Eb|--------------------------------------------------------|
Bb|--------------------------------------------------------|
Gb|--5-5-5-5-5-5-5-5-7-7-7-7-7-7-7-7-9-9-9-9-9-9-9-9-11-11-|
Db|--x-x-x-x-x-x-x-x-x-x-x-x-x-x-x-x-x-x-x-x-x-x-x-x-x--x--|
Ab|--3-3-3-3-3-3-3-3-5-5-5-5-5-5-5-5-7-7-7-7-7-7-7-7-9--9--|
Db|--------------------------------------------------------|
[ Tab from: http://www.guitartabs.cc/tabs/l/linkin_park/pushing_me_away_tab_ver_4.html ]
Eb|--------------------------------------------------------|
Bb|--------------------------------------------------------|
Gb|--11-11-11-12-12-12-12-12-12-12-------------------------|
Db|--x--x--x--x--x--x--x--x--x--x--------------------------|
Ab|--9--9--9--10-10-10-10-10-10-10-------------------------|
Db|--------------------------------------------------------|

Bridge(guitar 2)(distortion)

Eb|--------------------------------------------------------|
Bb|--------------------------------------------------------|
Gb|--------------------------------------------------------|
Db|--5-5-5-5-5-5-7-7-7-7-7-7-7-7-7-7-7-7-4-4-4-5-5-5-9-9---|
Ab|--3-3-3-3-3-3-5-5-5-5-5-5-7-7-7-7-7-7-4-4-4-5-5-5-9-9---|
Db|--------------------------7-7-7-7-7-7-4-4-4-5-5-5-9-9---|

In the final chorus, when the singing stops, it ends with
guitar 1 playing this as the song fades out.

Eb|--------------------------------------------------------|
Bb|--------------------------------------------------------|
Gb|--16-16-16-16-16-16-16-16-16-16-------------------------|
Db|--x--x--x--x--x--x--x--x--x--x--------------------------|
Ab|--14-14-14-14-14-14-14-14-14-14-------------------------|
Db|--------------------------------------------------------|

Lyrics:

1st Verse

I've lied to you
The same way that I always do
This is the last smile 
That I'll fake for the sake of being with you

[Everything falls apart/even the people
who never frown/eventually break down]
The sacrifice of hiding in a lie
[Everything has to end/you'll soon find we're
out of time left to watch it all unwind]
The sacrifice is never knowing 

Chorus

Why I never walked away
Why I played myself this way
Now I see your testing me pushes me away

2nd Verse

I've tried like you
To do everything you wanted to
This is the last time
I'll take the blame for the sake of being with you

[Everything falls apart/even the people
who never frown/eventually break down]
The sacrifice of hiding in a lie
[Everything has to end/you'll soon find we're
out of time left to watch it all unwind]
The sacrifice is never knowing

Chorus

Bridge

[Everything falls apart/even the people
who never frown/eventually break down]
The sacrifice of hiding in a lie
[Everything has to end/you'll soon find we're
out of time left to watch it all unwind]
The sacrifice is never knowing 

Chorus

That's it for a very complicated, and powerful song!!!
Comments