Linkin Park - Pushing Me Away Chords & Tabs

 

Pushing Me Away Chords & Tabs

Linkin Park Chords & Tabs

Version: 1 Type: Tab 0 ratings
1 star 2 stars 3 stars 4 stars 5 stars
comments

Pushing Me Away Tab

song:pushing me away
artist:linkin park
from the album:hybrid theory
drop D tuning

[ Tab from: http://www.guitartabs.cc/tabs/l/linkin_park/pushing_me_away_tab.html ]
intro/verses
e|---12--------|-12-15-14---|----10-----|----15-14---|
b|------15-14--|------------|-10----12--|----------15|
g|------------9|-----------9|----------9|-12---------|
d|-------------|------------|-----------|------------|
a|-------------|------------|-----------|------------|
d|-------------|------------|-----------|------------|


chorus
strumin patern not shown
e|------------------------------
b|------------------------------
g|------------------------------
d|-2----10----12-5----7--9--0---
a|-2----10----12-5----7--9--0---
d|-2----10----12-5----7--9--0---

i havent figured out the bridge yet but ill try it soon
its a pretty easy song to play

Comments