Linkin Park - Points Of Authority Chords & Tabs

 

Points Of Authority Chords & Tabs

Linkin Park Chords & Tabs

Version: 3 Type: Tab 3 ratings
1 star 2 stars 3 stars 4 stars 5 stars
comments

Points Of Authority Tab

               
--=-=-=-=-=-=-=-=-=-=-=-=-=-=-=-=-=-=-=-=-=-=-=-=-=-=-=-=-=-=--
                  Artist   : Linkin Park
                   Title   : Points of Authority
               Tabbed By   : br0dy st3wy
                  E-Mail   : Insane_Riffs@hotmail.com
 Web-Site[in-the-making]   : Http://www.upshot.2ya.com
--=-=-=-=-=-=-=-=-=-=-=-=-=-=-=-=-=-=-=-=-=-=-=-=-=-=-=-=-=-=--



       played in drop 'd' tuning.
(h)  - sounds best as a hammer-on.
(p)  - sounds best as a pull-off.
 X   - mute.

-= intro & chorus =- (proper elctric way) [guitar1]
e]--0-(h)3-(h)7-(p)3--[
B]--------------------[ ( play 48 times  INTRO )
G]--------------------[ ( play 32 times CHORUS )
D]--------------------[
A]--------------------[
D]--------------------[



--=-=-=-=-=-=-=-=-=-=-=-=-=-=-=-=-=-=-=-=-=-=-=-=-=-=-=-=-=-=--
(alternate ways to play it; take your pick)
e]--0-7---[      e]----7---[      e]-----------[
B]---8-8--[      B]---8-8--[      B]---8-12-8--[
G]--------[ |or| G]--9-----[ |or| G]--9--------[
D]--------[      D]--------[      D]-----------[
A]--------[      A]--------[      A]-----------[
D]--------[      D]--------[      D]-----------[
--=-=-=-=-=-=-=-=-=-=-=-=-=-=-=-=-=-=-=-=-=-=-=-=-=-=-=-=-=-=--



-= bridge =-
e]---------------------------------------------------[
B]---------------------------------------------------[
G]---------------------------------------------------[
D]--7-7--X-X--X--5/7--7/8--5/7-7--X-X--X--7-X-5-X-8--[
A]--7-7--X-X--X--5/7--7/8--5/7-7--X-X--X--7-X-5-X-8--[
D]--7-7--X-X--X--5/7--7/8--5/7-7--X-X--X--7-X-5-X-8--[

then play this
e]-------------------------------------[
B]-------------------------------------[
G]-------------------------------------[
D]--7-7--X-X--X--5/7--7/8--5/7-7--X-X--[
A]--7-7--X-X--X--5/7--7/8--5/7-7--X-X--[
D]--7-7--X-X--X--5/7--7/8--5/7-7--X-X--[



-= verse =-
e]---------------------------------------------------[
B]---------------------------------------------------[
G]---------------------------------------------------[  play 6 times
D]--7-7--X-X--X--5/7--7/8--5/7-7--X-X--X--7-X-5-X-8--[
A]--7-7--X-X--X--5/7--7/8--5/7-7--X-X--X--7-X-5-X-8--[
D]--7-7--X-X--X--5/7--7/8--5/7-7--X-X--X--7-X-5-X-8--[
[ Tab from: http://www.guitartabs.cc/tabs/l/linkin_park/points_of_authority_tab_ver_3.html ]
-= then play this once =-
e]-----------------------------------------------[
B]-----------------------------------------------[
G]-----------------------------------------------[
D]--7-7--X-X--X--5/7--7/8--5/7-7--X-X--X--7-5-8--[
A]--7-7--X-X--X--5/7--7/8--5/7-7--X-X--X--7-5-8--[
D]--7-7--X-X--X--5/7--7/8--5/7-7--X-X--X--7-5-8--[



-= chorus =- [guitar2]
e]-----------|-----------|-----------|-----------|-------------[
B]-----------|-----------|-----------|-----------|-------------[
G]-----------|-----------|-----------|-----------|-------------[
D]--7-----8--|--7-----8--|--7-----8--|--7-----8--|--7-X-5-X-8--[
A]--7-----8--|--7-----8--|--7-----8--|--7-----8--|--7-X-5-X-8--[
D]--7-----8--|--7-----8--|--7-----8--|--7-----8--|--7-X-5-X-8--[


-= outro =-
e]---------------------------------------------------[
B]---------------------------------------------------[
G]---------------------------------------------------[
D]--7-7--X-X--X--5/7--7/8--5/7-7--X-X--X--7-X-5-X-8--[ (play 2 times)
A]--7-7--X-X--X--5/7--7/8--5/7-7--X-X--X--7-X-5-X-8--[
D]--7-7--X-X--X--5/7--7/8--5/7-7--X-X--X--7-X-5-X-8--[

e]------------------------------------------------------------------[
B]------------------------------------------------------------------[
G]------------------------------------------------------------------[
D]------X-X--X--5/7--7/8--5/7-7--X-X--X--7-X-5-X-8--|--7-X-5-X-8-7--[
A]------X-X--X--5/7--7/8--5/7-7--X-X--X--7-X-5-X-8--|--7-X-5-X-8-7--[
D]------X-X--X--5/7--7/8--5/7-7--X-X--X--7-X-5-X-8--|--7-X-5-X-8-7--[

-=-=-=-
  START
intro
bridge
verse
chorus
verse
chorus
bridge
bridge
chorus
outro
    END
-=-=-=-

--=-=-=-=-=-=-=-=-=-=-=-- End Tab --=-=-=-=-=-=-=-=-=-=-=-=-=-=--

--=-=-=-=-=-=-=-=-=-=-=-- Lyrichs --=-=-=-=-=-=-=-=-=-=-=-=-=-=--

[Bridge]
Forfeit the game
Stop the talk show
Product of what
You're taught to know
Forfeit the game
Cause tommorow
When it's all done
You reap what you sow

[verse1]
You love the way I look at you
While taking pleasure in the awful things you put me through
You take away if I give in
My life, my pride is broken

[chorus]
You like to think you’re never wrong (You live what you’ve learned)
You have to act like you’re someone (You live what you’ve learned)
You want someone to hurt like you (You live what you’ve learned)
You want to share what you’ve been through
You live what you’ve learned

[verse2]
You love the things I say I’ll do
The way I’ll hurt myself again just to get back at you
You take away when I give in
My life, my pride is broken

--=-=-=-=-=-=-=-=-=-=-=-- End --=-=-=-=-=-=-=-=-=-=-=-=-=-=--
Comments