Linkin Park - Place For My Head Chords & Tabs

 

Place For My Head Chords & Tabs

Linkin Park Chords & Tabs

Version: 3 Type: Tab 1 rating
1 star 2 stars 3 stars 4 stars 5 stars
comments

Place For My Head Tab

#----------------------------------PLEASE NOTE--------------------------------#
#This file is the author's own work and represents their interpretation of the#
#song. You may only use this file for private study, scholarship, or research.#
#-----------------------------------------------------------------------------#
#-- File created with Instab - http://www.pconline.com/~smcarey/instab.html --#
#-----------------------------------------------------------------------------#

Author/Artist: LINKIN PARK
Title: Place For My Head
Album: Hybrid Theory
Transcribed by: Scott Barnett
Email: Metallicat100@yahoo.com

Original song is played with a Ibanez 7-string

Intro, Verse 1 and Verse 2 Part 1

---------------------------------|--------------------------------------------
---------------------------------|--------------------------------------------
-----6-6-6-7-6-4-----------------|--------------------------------------------
-4-4-------------7-7-5-5-5-5-5-7-|--------------------------------------------
---------------------------------|--------------------------------------------
---------------------------------|--------------------------------------------
 Verse 2 Part 2                                                               
[ Tab from: http://www.guitartabs.cc/tabs/l/linkin_park/place_for_my_head_tab_ver_3.html ]
------------------------------------------------------------------------------
------------------------------------------------------------------------------
-6-------2-------6-------2----------------------------------------------------
-4-------0-------4-------0----------------------------------------------------
-4-------0-------4-------0----------------------------------------------------
-4-------0-------4-------0----------------------------------------------------
 Chorus                                                                       

------------------------------------------------------------------------------
------------------------------------------------------------------------------
----------6-7-6-4-2-2-2-2-----------------------------------------------------
-4-4-4-4--6-7-6-4-2-2-2-2-5-5-5-7---------------------------------------------
-4-4-4-4--4-5-4-2-0-0-0-0-5-5-5-7---------------------------------------------
-4-4-4-4------------------5-5-5-7---------------------------------------------
  Ending                                                                      

------------------------------------------------------------------------------
------------------------------------------------------------------------------
------------------------------------------------------------------------------
-4-4--4-4-4-4--4-4--4-4-4---5-7-----------------------------------------------
-4-4--4-4-4-4--4-4--4-4-4---5-7-----------------------------------------------
-4-4--4-4-4-4--4-4--4-4-4---5-7-----------------------------------------------
                                                                              

Comments