Linkin Park - Place For My Head Chords & Tabs

 

Place For My Head Chords & Tabs

Linkin Park Chords & Tabs

Version: 1 Type: Tab 5 ratings
1 star 2 stars 3 stars 4 stars 5 stars
comments

Place For My Head Tab

   
Place for my head -Linkin Park
Tabbed by: Jin Solomon (ironsulfuryx073@yahoo.com)
Tuning: tune down half step then drop d (C#,G#,C#,F#,A#,D#)

Palm mute = *
 
intro(clean) and verse(distortion)
D#--------------------------------------------------------------------------------
A#--------------------------------------------------------------------------------
F#--------------------------------------------------------------------------------
C#------9-9-9-10-9-7-------------------(repeat until chorus)----------------------
G#--7-7-------------10-10-8-8-8-8-8-10--------------------------------------------
C#--------------------------------------------------------------------------------

Chorus(distortion)
D#--------------------------------------------------------------------------------
A#---------------------------(repeat until 2nd verse)-----------------------------
F#--------------------------------------------------------------------------------
C#--2-2--99-9h10-9s7--5-5--33333-3h5----------------------------------------------
G#--2-2--99-9h10-9s7--5-5--33333-3h5----------------------------------------------
C#--2-2--99-9h10-9s7--5-5--33333-3h5----------------------------------------------

2nd verse 
repeat intro/1st verse. repeat until pre chorus
(first round in clean note, then the rest in distortion)

Pre chorus
D#--------------------------------------------------------------------------------
A#--------------------------------------------------------------------------------
F#--------------------------------------------------------------------------------
C#--2--0--2--0--2s15-15s2---------------------------------------------------------
G#--2--0--2--0--2s15-15s2---------------------------------------------------------
C#--2--0--2--0--2s15-15s2---------------------------------------------------------
[ Tab from: http://www.guitartabs.cc/tabs/l/linkin_park/place_for_my_head_tab.html ]
2nd Chorus(distortion)
D#--------------------------------------------------------------------------------
A#---------------------------(repeat until bridge)--------------------------------
F#--------------------------------------------------------------------------------
C#--2-2--99-9h10-9s7--5-5--33333-3h5----------------------------------------------
G#--2-2--99-9h10-9s7--5-5--33333-3h5----------------------------------------------
C#--2-2--99-9h10-9s7--5-5--33333-3h5----------------------------------------------

Bridge 
D#--------------------------------------------------------------------------------
A#-(This is for the first 4 times chester say:You, try to take the best of me and so on..) 
F#--------------------------------------------------------------------------------
C#--------------------------------------------------------------------------------
G#--------------------------------------------------------------------------------
C#--2---2-2----(repeat this until the screaming part..)---------------------------

This is for the screaming part
D#--------------------------------------------------------------------------------
A#--------------------------------------------------------------------------------
F#--------------------------------------------------------------------------------
C#--2-2--99-9h10-9s7--5-5--33333-3h5----------------------------------------------
G#--2-2--99-9h10-9s7--5-5--33333-3h5----------------------------------------------
C#--2-2--99-9h10-9s7--5-5--33333-3h5----------------------------------------------

one last chorus. using the same chords.

End (repeat this till the song ends)
D#-------------------------------------------------------------------------------
A#-------------------------------------------------------------------------------
F#-------------------------------------------------------------------------------
C#--2-2--------2-2------2-2--------2-2---5---------------------------------------
G#--2-2-----2*-2-2---2*-2-2-----2*-2-2---5---------------------------------------
c#--2-2---2*2*-2-2---2*-2-2---2*2*-2-2---5---------------------------------------

That's it. i believe this is 99.9 % accurate, and i hope you do believe me too. 
Just listen to the song to get the correct timing. enjoy 
          
 
Comments