Linkin Park - Part Of Me Chords & Tabs

 

Part Of Me Chords & Tabs

Linkin Park Chords & Tabs

Version: 3 Type: Tab 0 ratings
1 star 2 stars 3 stars 4 stars 5 stars
comments

Part Of Me Tab

   
This is back from when they were known as Hybrid Theory
From the Hybrid Theory EP this song is one of the greatest songs, I think it's kinda
sad what happened to their songwriting and music...

Tabbed By: A Darker Breed
E-Mail: ADarkerBreed@gmail.com

Drop D tuning (D,A,D,G,B,e)

Intro

e|------------------------------|
B|------------------------------|
G|------------------------------|
D|------------------------------|
A|-0-0-88-0-0--8-8-0-0-888------|
D|------------------------------|
   \_______PM_____________/

Verse

e|-----------------------------------------------------------|
B|-----------------------------------------------------------|
G|-14--14--14--14--17--17--14--14--14--16--16--12--12--12--12|
D|---14--14--14--14--15--15--14--14--14--14--14--14--14--14--|
A|-----------------------------------------------------------|
D|-----------------------------------------------------------|


Pre-chorus
[ Tab from: http://www.guitartabs.cc/tabs/l/linkin_park/part_of_me_tab_ver_3.html ]
e|----------------------|
B|----------------------|
G|----------------------|
D|--3p2--3p2--3p2--3h5--|
A|--3p2--3p2--3p2--3h5--|
D|--3p2--3p2--3p2--3h5--|


Chorus

e|-----------------------------------------------------|
B|-----------10-10-10-10-------------------------------|
G|-----------x--x--x--x--------------------------------|
D|-7-7-7-7-7-8--8--8--8--7-7-7-7-5-5-5-----------------|
A|-7-7-7-7-7-------------7-7-7-7-5-5-5-----------------|
D|-7-7-7-7-7-------------7-7-7-7-5-5-5-----------------|


Bridge

e|----------------------------------------------------------|
B|----------------------------------------------------------|
G|--9-9--9-9--10-9---------10-10--10-9--10-10--10-10--12-12-|
D|--x-x--x-x---x-x--10-9---x--x---x-x---x--x---x--x----x--x-|
A|--7-7--7-7---8-7---x-x---8--8---8-7---8--8---8--8---10-10-|
D|------------------10-9------------------------------------|


Intro
Verse
Pre-Chorus
Chorus
Intro
Verse
Pre-Chorus
Chorus
Bridge
Verse (clean)
Chorus
Chorus

/  slide up
\  slide down
h  hammer-on
p  pull-off
~  vibrato
+  harmonic
x  Mute note
Comments