Linkin Park - Paper Cut Chords & Tabs

 

Paper Cut Chords & Tabs

Linkin Park Chords & Tabs

Version: 1 Type: Tab 1 rating
1 star 2 stars 3 stars 4 stars 5 stars
comments

Paper Cut Tab

#----------------------------------PLEASE NOTE--------------------------------#
#This file is the author's own work and represents their interpretation of the#
#song. You may only use this file for private study, scholarship, or research.#
#-----------------------------------------------------------------------------#
#-- File created with Instab - http://www.pconline.com/~smcarey/instab.html --#
#-----------------------------------------------------------------------------#
[ Tab from: http://www.guitartabs.cc/tabs/l/linkin_park/paper_cut_tab.html ]
Author/Artist: LINKIN PARK
Title: PAPERCUT
Album: HYBRID THEORY
Transcribed by: JAMIE B......
-10------12------13-------12--------10------12------13------12----------------
-----10------10------10--------10-------10------10------10-------10-----------
------------------------------------------------------------------------------
------------------------------------------------------------------------------
------------------------------------------------------------------------------
------------------------------------------------------------------------------
                          intro/chorus riff                                   

----------------------------|-------------------------------------------------
----------------------------|-------------------------------------------------
---------------10--9/--5----|-------------------------------------------------
-----0---0---0--8--7/--5----|-------------------------------------------------
-----0---0---0--8--7/--3----|-------------------------------------------------
-----0---0---0--8--7/--3----|-1--1--3-----------------------------------------
                              verse                                           

-------------------------------------------------|----------------------------
-------------------------------------------------|----------------------------
-------------------------------------------------|----------------------------
-------------------------------------------------|----------------------------
-------------------------------------------------|----------------------------
---0---0---0------------8-------8-8--8--7---7----|-8--7-7--1---1--3-----------
                                                                              

Comments