Linkin Park - One Step Closer Chords & Tabs

 

One Step Closer Chords & Tabs

Linkin Park Chords & Tabs

Version: 8 Type: Tab 0 ratings
1 star 2 stars 3 stars 4 stars 5 stars
comments

One Step Closer Tab

Song: One Step Closer
Artist: Linkin Park
Album: Hybrid Theory (2000)

Dropped D & Tune Down 1/2 A Step
 = Harmonics

Intro:
E|---------------------------------------------------------|
B|---------------------------------------------------------|
G|---------------------------------------------------------|
D|---------------------------------------------------------|
A|-------------7-------------------------------------------|
D|--0----0-----8----0--3-----------------------------|

Verse:
E|---------------------------------------------------------|
B|---------------------------------------------------------|
G|-----------9-----------5-----------9-----------5---------|
D|--0--0--x--x--8--7--x--x--0--0--x--x--8--7--x--x---------|
A|--0--0--x--7--8--7--x--3--0--0--x--7--8--7--x--3---------|
D|--0--0--x-----8--7--x-----0--0--x-----8--7--x------------|
  "I cannot take this anymore.."

Pre Chorus:
E|---------------------------------------------------------|
B|---------------------------------------------------------|
G|---------------------------------------------------------|
D|--5--5--x--x--x--5--5--x--x--x--5--5--x--x--x------------|
A|--5--5--x--x--x--5--5--x--x--x--5--5--x--x--x------------|
D|--5--5--x--x--x--5--5--x--x--x--5--5--x--x--x------------|
  "Just like before.."
[ Tab from: http://www.guitartabs.cc/tabs/l/linkin_park/one_step_closer_tab_ver_8.html ]
Chorus:
E|---------------------------------------------------------|
B|---------------------------------------------------------|
G|---------------------------------------------------------|
D|--0--0--12--10--10--7--8--8--5--7--7--1------------------|
A|--0--0--12--10--10--7--8--8--5--7--7--1------------------|
D|--0--0--12--10--10--7--8--8--5--7--7--1------------------|
  "Everything you say to me.."

Fill 1:                       Fill 2:
E|------------|-----------------------------|
B|------------------|-----------------------------|
G|---------------------------|-----------------------------|
D|---------------------------|--1--1--1--1--1--1--1--1-----|
A|---------------------------|--1--1--1--1--1--1--1--1-----|
D|---------------------------|--1--1--1--1--1--1--1--1-----|

Bridge:                                  End on:
E|--------------------------------------|------------------|
B|--------------------------------------|------------------|
G|--------------------------------------|------------------|
D|--1--0--x--x--x--0--3--1--0--6--0--3--|--0m--0m--0m--0m--|
A|--1--0--x--x--x--0--3--1--0--6--0--3--|--0m--0m--0m--0m--|
D|--1--0--x--x--x--0--3--1--0--6--0--3--|--0m--0m--0m--0m--|
  "Shut up.."

Intro/Verse/Pre-Chorus/Chorus/Verse/Pre-Chorus/Fill 1/Chorus/Fill 2/Intro/Bridge/Chorus/Fill 2.
Comments