Linkin Park - One Step Closer Chords & Tabs

 

One Step Closer Chords & Tabs

Linkin Park Chords & Tabs

Version: 5 Type: Tab 4 ratings
1 star 2 stars 3 stars 4 stars 5 stars
comments

One Step Closer Tab

   
Artist:Linkin Park
Song:One Step Closer
Tuning:Drop D, half-step down-Db,Ab,Db,Gb,Bb,Eb
Notes: This is the CORRECT transcription of the song. 
This came straight out of Guitar World mag from Brad Delson. 
Use a heavy distortion through the whole song.
Symbols:
P.M.=Palm mute
x=dead note,or, not played
^=bend string
NH=Natural Harmonic

Intro:
               (play 4 times)                (play 4 times)
|---------------------------|-----------------------------|
|---------------------------|-----------------------------|
|---------------------------|----------9--------------5---|
|---------------------------|--0-0--x--x---8-7-----x--x---|
|----------0-7--------------|--0-0--x--7---8-7--0--x--3---|
|---0--5---------8-7--0-3---|--0-0--x------8-7--0--x------|
P.M.=  NH  = =   = NH = =
[ Tab from: http://www.guitartabs.cc/tabs/l/linkin_park/one_step_closer_tab_ver_5.html ]
Verse:
             (play 12 times)
|--------------------------|
|--------------------------|
|----------9-----------5---|
|--0-0--x--x---8-7-----x---|
|--0-0--x--7---8-7--0--3---|
|--0-0--x------8-7--0------|

Chorus:
                                          (play 4 times)
|------------------------------------------------------|
|------------------------------------------------------|
|------------------------------------------------------|
|--0-0--12-12--10-10--7-7-10-10--5-5--7-7--3-3-3-3-3---|
|--0-0--12-12--10-10--7-7--8--8--5-5--7-7--1-1-1-1-1---|
|--0-0--12-12--10-10--7-7--8--8--5-5--7-7--1-1-1-1-1---|

Bridge: (Shut up when I'm talkin' to you!)

|----------------------------|
|----------------------------|
|----------------------------|
|--1-0--x-x--x---------------|
|--1-0--x-x--x---------------|
|--1-0--x-x--x--3-5-0-0-6^---|

Song Order:
Intro
verse
chorus
verse
chorus 
bridge
chorus as outro.

















Comments