Linkin Park - One Step Closer Remix Chords & Tabs

 

One Step Closer Remix Chords & Tabs

Linkin Park Chords & Tabs

Version: 1 Type: Bass Tab 0 ratings
1 star 2 stars 3 stars 4 stars 5 stars
comments

One Step Closer Remix Bass Tab

1stp Klosr ---ranimation---

  (1:04) 
D|------------------| 
A|------------------|
E|--0---------------| 
B|------------------| 

  (1:20)                         (1:22)                  (1:46) 
D|----------------------|---------------------|---------------------| 
A|----------------------|---------------------|---------------------| 
E|----------------------|---------------------|---------------------| 
B|--4-4----2-x-2--4-4---|--2-x-2---4-4--------|--2-x-2--4-4---------|

  (1:53)             (2:03) 
D|-----------------|-----------------------------------------| 
A|-----------------|-----------------------------------------| 
E|-----------------|-----------------------------------------| 
B|-2-4-4-2---------|-2-5-5---5-7-7---7-9-9---9/2-------------| 
[ Tab from: http://www.guitartabs.cc/tabs/l/linkin_park/one_step_closer_remix_btab.html ]
  (4:32)                            (4:39) 
D|-----------------------------|----------------------------------------| 
A|-----------------------------|----------------------------------------| 
E|-----------------------------|----------------------------------------| 
B|-3-2-x-x-2-5-2-3-2--7--------|-3-2-x-x-2-5-2-3---3-3-3----------------| 

  (4:52) 
D|-------------------------------------------| 
A|-------4--2-2-x-4--------------------------|
E|-------------------5-5-x-2--4-4------------|
B|-2-2-x---------------------------3---------| 

  (4:57) 
D|--------------------------------------------|
A|-------4--2-2-x-4---------------------------| 
E|-------------------5-5-x-2--4-4-------------| 
B|-2-2-x---------------------------3-3-3-3----|

  (5:32) 
D|---------------------------------------------------------|
A|---------------------------------------------------------| 
E|---------------------------------------------------------|
B|-3-3-3-3-3-3-3-3----333333333333333--3~------------------| 

by zack anderson gb_packers152004@hotmail.com
Comments