Linkin Park - One Step Closer Correct Chords & Tabs

 

One Step Closer Correct Chords & Tabs

Linkin Park Chords & Tabs

Version: 1 Type: Tab 0 ratings
1 star 2 stars 3 stars 4 stars 5 stars
comments

One Step Closer Correct Tab

Title: One Step Closer
Artist: Linkin Park

This is how the song SHOULD be played.

* = Harmonics . = Palm Mute

Riff 1: Intro
e|------------------------------------------------------
b|------------------------------------------------------
g|------------------------------------------------------
d|------------------------------------------------------
a|----------7*-------7*-8-------------------------------
d|-0--5*-7*----8--7*------------------------------------

Riff 2: Chorus
e|------------------------------------------------------ 
b|------------------------------------------------------ 
g|----------9-----------5------------------------------- 
d|-0--0--x-----8--7--0---------------------------------- 
a|-0--0--x--7--8--7--0--3------------------------------- 
d|-0--0--x-----8--7--0----------------------------------   

Riff 3: Transition 
e|------------------------------------------------------ 
b|------------------------------------------------------ 
g|------------------------------------------------------ 
d|-5-5-x-x--x-5-5-x-x--x-5-5-x-x------------------------ 
a|-5-5-x-x--x-5-5-x-x--x-5-5-x-x------------------------ 
d|-5-5-x-x--x-5-5-x-x--x-5-5-x-x------------------------  
[ Tab from: http://www.guitartabs.cc/tabs/l/linkin_park/one_step_closer_correct_tab.html ]
Riff 4: Chorus2 
e|------------------------------------------------------ 
b|------------------------------------------------------ 
g|------------------------------------------------------ 
d|-0---12---10---7---10---5---7---3-3------------------- 
a|-0---12---10---7----8---5---7---1-1------------------- 
d|-0---12---10---7----8---5---7---1-1-------------------

Chorus2 ending
e|------------------------------------------------------ 
b|------------------------------------------------------ 
g|------------------------------------------------------ 
d|-0---12---10---7---10---5---7---3-3-3-3-3-3-3-3------- 
a|-0---12---10---7----8---5---7---1-1-1-1-1-1-1-1------- 
d|-0---12---10---7----8---5---7---1-1-1-1-1-1-1-1-------  

Riff 5: bridge
e|------------------------------------------------------ 
b|------------------------------------------------------ 
g|------------------------------------------------------ 
d|-1-0-x-x--x-0-3-1-0-6--0-3---------------------------- 
a|-1-0-x-x--x-0-3-1-0-6--0-3---------------------------- 
d|-1-0-x-x--x-0-3-1-0-6--0-3----------------------------

bridge part 2 
e|------------------------------------------------------ 
b|------------------------------------------------------ 
g|------------------------------------------------------ 
d|-1-0-x-x--x-0-3-1-0.-0.-0.-0.------------------------- 
a|-1-0-x-x--x-0-3-1-0.-0.-0.-0.------------------------- 
d|-1-0-x-x--x-0-3-1-0.-0.-0.-0.-------------------------  

Riff 6: Outro2 
e|------------------------------------------------------ 
b|------------------------------------------------------ 
g|------------------------------------------------------ 
d|-3-3-3-3-3-3-3-3-------------------------------------- 
a|-1-1-1-1-1-1-1-1-------------------------------------- 
d|-1-1-1-1-1-1-1-1--------------------------------------

Visit my site at http://www.ablazen.com
Comments