Linkin Park - One Step Closer Chords & Tabs

 

One Step Closer Chords & Tabs

Linkin Park Chords & Tabs

Version: 2 Type: Bass Tab 0 ratings
1 star 2 stars 3 stars 4 stars 5 stars
comments

One Step Closer Bass Tab

Linkin park
One step closer

Drop d tuning

After intro

G|-----------------------|
D|-----------------------|
A|----5----7-------------|
D|-0----0----8-7-0-3-----|


Chorus 

G|-------------------------------------------------------------|
D|-------------------------------------------------------------|
A|-------------------------------------------------------------|
D|-0-0-12-12-10-10-7-7-8-8-5-5-7-7-333-------------------------|                  x2

G|-----------------------|
D|-----------------------|
A|----5----7-------------|
D|-0----0----8-7-0-3-----|
[ Tab from: http://www.guitartabs.cc/tabs/l/linkin_park/one_step_closer_btab_ver_2.html ]
G|------------------------------------------------------|
D|------------------------------------------------------|
A|------------------------------------------------------|
D|-0-0-12-12-10-10-7-7-8-8-5-5-7-7-333------------------|         x4

G|---------------------------|
D|---------------------------|
A|---------------------------|
D|-0-0-0-0-0-0-0-0-----------|                  

The  ‘SHUT UP’ bit (I’m not 2 sure if this bit is right but it doesn’t sound 2 bad, please correct!)

G|------------------------------|
D|------------------------------|
A|------------------------------|
D|-1-0-3p0h3/6/-----------------|

G|-------------------------------------------------------------|
D|-------------------------------------------------------------|
A|-------------------------------------------------------------|
D|-0-0-12-12-10-10-7-7-8-8-5-5-7-7-333-------------------------|                  x4

G|---------------------------|
D|---------------------------|
A|---------------------------|
D|-0-0-0-0-0-0-0-0-----------|                  
Comments