Linkin Park - One Step Closer Chords & Tabs

 

One Step Closer Chords & Tabs

Linkin Park Chords & Tabs

Version: 11 Type: Bass Tab 0 ratings
1 star 2 stars 3 stars 4 stars 5 stars
comments

One Step Closer Bass Tab

   
One Step Closer by Linkin Park
Standard tuning (E,A,D,G) 4:4 time

(Intro)
G:-----------------|----------------
D:-----------------|----------------  X2
A:-----6-7-7-6-4---|----6-7-----4--
E:-4-4-----------7-|4-4-----4-4---7
   1 + 2 + 3 + 4 +  1 + 2 + 3 + 4 +

(Verse)
G:----------------|-----------------
D:----------------|-----------------  X4
A:-----6-7-----4--|-----6-7-7-6-4---
E:-4-4-----4-4---7|-4-4-----------7-
   1 + 2 + 3 + 4 +  1 + 2 + 3 + 4 + 

(Chorus)
G:---6-4----------
D:-------6/7-4-6--  X4
A:-4-------------5
E:----------------
   1 + 2 + 3 + 4 +

(Verse)
G:----------------|-----------------
D:----------------|-----------------  X4
A:-----6-7-----4--|-----6-7-7-6-4---
E:-4-4-----4-4---7|-4-4-----------7-
   1 + 2 + 3 + 4 +  1 + 2 + 3 + 4 + 
[ Tab from: http://www.guitartabs.cc/tabs/l/linkin_park/one_step_closer_btab_ver_11.html ]
(Chorus)
G:---6-4----------      
D:-------6/7-4-6--  X3
A:-4-------------5
E:----------------
   1 + 2 + 3 + 4 +

G:-----------------|----------------
D:-----------------|----------------
A:-5-5-5-5-5-5-5-5-|-4--------------
E:-----------------|----------------
   1 + 2 + 3 + 4 +   1 + 2 + 3 + 4 +

(Bridge)
G:------------------------
D:------------------------  X8
A:-4-3-3-3--7-6-5-6/-12\-4
E:------------------------
   1 + 2 + 1 + 2 + 1 + 2 +

(Chorus)
G:---6-4----------      
D:-------6/7-4-6--  X3
A:-4-------------5
E:----------------
   1 + 2 + 3 + 4 +

(Outro)
G:-----------------|----------------
D:-----------------|----------------
A:-5-5-5-5-5-5-5-5-|-4--------------
E:-----------------|----------------
   1 + 2 + 3 + 4 +   1 + 2 + 3 + 4 +

Please rate after you've learned the song. 
Tabbed by:
_TheBassist01_
Comments