Linkin Park - One Step Closer Chords & Tabs

 

One Step Closer Chords & Tabs

Linkin Park Chords & Tabs

Version: 10 Type: Bass Tab 0 ratings
1 star 2 stars 3 stars 4 stars 5 stars
comments

One Step Closer Bass Tab

This song is played in drop C# tuning

> = let ring

X = mute the note

G  ------------------------ X11
D  ------------------------
A  ----------6-------------
C# --0--0--6----8--7--0--3-

G  -----
D  -----
A  -----
C# --5>-

G  --------------------------------------- X2
D  ---------------------------------------
A  --------4---2--2--4--------------------
C# --0--0----------------8--8--6--7--7--3-

G  ------------------------ X8
D  ------------------------
A  ----------6-------------
C# --0--0--6----8--7--0--3-

G  -----
D  -----
A  -----
C# --5>-

G  --------------------------------------- X4
D  ---------------------------------------
A  --------4---2--2--4--------------------
C# --0--0----------------8--8--6--7--7--3-
[ Tab from: http://www.guitartabs.cc/tabs/l/linkin_park/one_step_closer_btab_ver_10.html ]
G  --------------------
D  --------------------
A  --------------------
C# --1-1-1-1-1-1-1-1-X-

G  ---------------------- X3
D  ----------------------
A  ----------------------
C# --1--0----0-3-1-0-0-3-

G  ------------------------
D  ------------------------
A  ------------------------
C# --1--0----0-3-2-1-0-1-0-

G  ---------------------- X3
D  ----------------------
A  ----------------------
C# --1--0----0-3-1-0-0-0-

G  ----------
D  ----------
A  ----------
C# --1----0>-

G  --------------------------------------- X4
D  ---------------------------------------
A  --------4---2--2--4--------------------
C# --0--0----------------8--8--6--7--7--3-

G  --------------------
D  --------------------
A  --------------------
C# --1-1-1-1-1-1-1-1-X-
Comments