Linkin Park - Numb Chords & Tabs

 

Numb Chords & Tabs

Linkin Park Chords & Tabs

Version: 8 Type: Tab 0 ratings
1 star 2 stars 3 stars 4 stars 5 stars
comments

Numb Tab

   
This song needs DROP D tuning: Db, Ab, Db, Gb, Bb, Eb
do do this, play the 12th fret on the 6th string (top string), then play the 4th
string open. Adjust the 6th string to match the G.

If you want to contact me, email cool_spatula@hotmail.com

Instrumental:

              G5          Eb5       Bb5/F       F5
  W/Heavy Distortion
||----------|----------|----------|----------|---------|
||----------|----------|----------|----------|---------|
||-5*/5-----|----------|----------|----------|---------|
||----------|--5~------|--1~------|--3~------|--3~-----|
||----------|--5~------|--1~------|--1~------|--3~-----|
||----------|--5~------|--1~------|--3~------|--3~-----|


Verse 1:

   (Gm)  (Eb)     (Bb)    (F)    (Gm)    (Eb)     (Bb)    (F)
  W/clean tone
||-------|-------|-------|-------|-------|-------|-------|-------|--------|
||-------|-------|-------|-------|-------|-------|-------|-------|--------|
||-------|-8-----|-------|-------|-------|-8-----|-------|-------|---8--8-|
||-5-----|-6-----|--8----|--3----|-5-----|-6-----|--8----|--3----|---6--6-|
||-5-----|-8-----|--6----|--3----|-5-----|-8-----|--6----|--3----|---8--8-|
||-5-----|-------|--8----|--3----|-5-----|-------|--8----|--3----|--------|


Bridge:

 W/clean tone and delay FX (if available)
||-----10----------------------|
||-8-----------8---------8-----|
||-----------------------------|
||-----------------------------| X 5
||-----------------------------|
||-----------------------------|


Chorus 1:

              G5          Eb5       Bb5/F       F5
  W/Heavy Distortion
||----------|----------|----------|----------|---------|
||----------|----------|----------|----------|---------|
||-5*/5-----|----------|----------|----------|---------|
||----------|--5~------|--1~------|--3~------|--3~-----| X 2
||----------|--5~------|--1~------|--1~------|--3~-----|
||----------|--5~------|--1~------|--3~------|--3~-----|


Verse 2:
[ Tab from: http://www.guitartabs.cc/tabs/l/linkin_park/numb_tab_ver_8.html ]
 W/clean tone and delay FX (if available)
||-----10----------------------|
||-8-----------8---------8-----|
||-----------------------------|
||-----------------------------| X 15
||-----------------------------|
||-----------------------------|


Chorus 2:    ___________________________________________
            |1
              G5          Eb5       Bb5/F       F5
  W/Heavy Distortion
||-10*------|----------|----------|----------|---------|
||-----5*/5-|----------|----------|----------|---------|
||----------|----------|----------|----------|---------|
||----------|--5~------|--1~------|--3~------|--3~-----| X 2(from section 1
||----------|--5~------|--1~------|--1~------|--3~-----|
||----------|--5~------|--1~------|--3~------|--3~-----|

Bridge:

   Eb5      F5      G5   A5  Bb5/F  D5  Eb5     F5        D5
   W/Heavy Distortion
||--------|--------|--------|---------|--------|--------|-------------|
||--------|--------|--------|---------|--------|--------|-------------|
||--------|--------|--------|---------|--------|--------|-------------|
||-1------|-3------|-5----7-|-3-----0-|-1------|-3------|-0-0-0-0-0-0-|
||-1------|-3------|-5----7-|-1-----0-|-1------|-3------|-0-0-0-0-0-0-|
||-1------|-3------|-5----7-|-3-----0-|-1------|-3------|-0-0-0-0-0-0-|


Last chorus:

   G5      Eb5      Eb5/F    F5
  W/Heavy Distortion
||--------|--------|--------|--------|
||--------|--------|--------|--------|
||--------|--------|--------|--------|
||-5------|-1------|-3------|-3------|
||-5------|-1------|-1------|-3------|
||-5------|-1------|-3------|-3------|

Outro:

   F5
||-------------|
||-------------|
||-------------|
||--3---3---3--|
||--3---3---3--|
||--3---3---3--|

Song Structure:
1) Instrumental Intro
2) Verse 1
3) Chorus 1
4) Verse 2
5) Chorus 2
6) Bridge
7) Chorus 3

Key:
Chords in () example; (Gm)   :  Chords played on kybd - chords w/o = guitar
*    :  Harmonic
/    :  Slide (if 5*/5 slide from the 5th fret harmonic to normal 5th)
~    :  Let note ring
Comments